  0
SECTION
  2
HEADER
  9
$ACADVER
  1
AC1006
  9
$AXISMODE
 70
     0
  9
$AXISUNIT
 10
0.0625
 20
0.0625
  9
$CECOLOR
 62
0
  9
$CELTYPE
  6
CONTINUOUS
  9
$CLAYER
  8
LAYER1
  9
$EXTMIN
 10
0
 20
0
  9
$EXTMAX
 10
14.4062
 20
10.8367
  9
$LIMMIN
 10
0
 20
0
  9
$LIMMAX
 10
14.4062
 20
10.8367
  9
$GRIDMODE
 70
     0
  9
$GRIDUNIT
 10
0.125
 20
0.125
  9
$MIRRTEXT
 70
     1
  9
$SNAPMODE
 70
     1
  9
$SNAPUNIT
 10
0.125
 20
0
  9
$SNAPSTYLE
 70
     0
  9
$SPLINESEGS
 70
     8
  9
$SPLINETYPE
 70
     6
  0
ENDSEC
  0
SECTION
  2
TABLES
  0TABLE  2VPORT 70     2  0VPORT  2*ACTIVE 70     0 100.0 200.0 111.0 211.0 1213.01087 224.5 130.0 230.0 141.0 241.0 150.0 250.0 160.0 260.0 361.0 170.0 270.0 370.0 409.0 412.891304 4250.0 430.0 440.0 500.0 510.0 71     0 72   100 73     1 74     1 75     0 76     0 77     0 78     0  0ENDTAB
  0
TABLE
  2
LTYPE
 70
     3
  0
LTYPE
  2
CONTINUOUS
 70
    64
  3
Descriptive Text
 72
    65
 73
     0
 40
0
  0
LTYPE
  2
DASH1
 70
    64
  3
Descriptive Text
 72
    65
 73
     2
 40
0.0694
 49
0.0417
 49
-0.0278
  0
LTYPE
  2
DASH2
 70
    64
  3
Descriptive Text
 72
    65
 73
     2
 40
0.125
 49
0.0694
 49
-0.0556
  0
ENDTAB
  0
TABLE
  2
LAYER
 70
     1
  0
LAYER
  2
LAYER1
 70
     0
 62
     7
  6
CONTINUOUS
  0
ENDTAB
  0TABLE  2STYLE 70     1  0STYLE  2STANDARD 70     0 400.0 411.0 500.0 71     0 420.2  3txt  4  0ENDTAB
  0
TABLE
  2
VIEW
 70
     0
  0
ENDTAB
  0
TABLE
  2
UCS
 70
     0
  0
ENDTAB
  0
TABLE
  2
DWGMGR
 70
     0
  0
ENDTAB
  0
ENDSEC
  0
SECTION
  2
BLOCKS
  0
BLOCK
  8
LAYER1
  2
Group1
 70
     0
 10
0
 20
0
 30
0
  0
TEXT
  8
LAYER1
 62
     7
 10
0.1844
 20
10.5093
 30
0
 40
0.125
  1
Electronics Shack - Transistors, Electron Tubes
 50
0
999
Geneva
  0
LINE
  8
LAYER1
  6
CONTINUOUS
 62
     7
 10
0.2083
 20
10.7534
 30
0
 11
4.75
 21
10.7534
 31
0
  0
ENDBLK
  8
LAYER1
  0
BLOCK
  8
LAYER1
  2
Group2
 70
     0
 10
0
 20
0
 30
0
  0
TEXT
  8
LAYER1
 62
     7
 10
8.6428
 20
10.4815
 30
0
 40
0.125
  1
Electronics Shack - Transformers and Inductors
 50
0
999
Geneva
  0
LINE
  8
LAYER1
  6
CONTINUOUS
 62
     7
 10
0.2222
 20
10.4339
 30
0
 11
4.7917
 21
10.4339
 31
0
  0
LINE
  8
LAYER1
  6
CONTINUOUS
 62
     7
 10
8.6389
 20
10.7534
 30
0
 11
13.6389
 21
10.7534
 31
0
  0
ENDBLK
  8
LAYER1
  0
BLOCK
  8
LAYER1
  2
Group3
 70
     0
 10
0
 20
0
 30
0
  0
TEXT
  8
LAYER1
 62
     7
 10
0.1983
 20
0.0648
 30
0
 40
0.0833
  1
Scale 1:1 Printed at 70%
 50
0
999
Geneva
  0
TEXT
  8
LAYER1
 62
     7
 10
4.1705
 20
0.2176
 30
0
 40
0.0833
  1
©1989,1990,1991,1992
 50
0
999
Geneva
  0
TEXT
  8
LAYER1
 62
     7
 10
4.0455
 20
0.051
 30
0
 40
0.0833
  1
Advanced System Design, Inc.
 50
0
999
Geneva
  0
ENDBLK
  8
LAYER1
  0
BLOCK
  8
LAYER1
  2
Group4
 70
     0
 10
0
 20
0
 30
0
  0
TEXT
  8
LAYER1
 62
     7
 10
8.6289
 20
0.0648
 30
0
 40
0.0833
  1
Scale 1:1 Printed at 70%
 50
0
999
Geneva
  0
TEXT
  8
LAYER1
 62
     7
 10
12.6289
 20
0.2176
 30
0
 40
0.0833
  1
©1989,1990,1991,1992
 50
0
999
Geneva
  0
TEXT
  8
LAYER1
 62
     7
 10
12.5039
 20
0.051
 30
0
 40
0.0833
  1
Advanced System Design, Inc.
 50
0
999
Geneva
  0
ENDBLK
  8
LAYER1
  0
BLOCK
  8
LAYER1
  2
Group5
 70
     0
 10
0
 20
0
 30
0
  0
LINE
  8
LAYER1
  6
CONTINUOUS
 62
     7
 10
8.6806
 20
10.3923
 30
0
 11
13.6806
 21
10.3923
 31
0
  0
SOLID
  8
LAYER1
 62
     7
 10
0.875
 20
9.7534
 30
0
 11
0.9722
 21
9.7256
 31
0
 12
0.9444
 22
9.6839
 32
0
 13
0.9583
 23
9.7117
 33
0
  0
ENDBLK
  8
LAYER1
  0
BLOCK
  8
LAYER1
  2
Group6
 70
     0
 10
0
 20
0
 30
0
  0
INSERT
  8
LAYER1
  2
Group5
 10
0
 20
0
 30
0
  0
LINE
  8
LAYER1
  6
CONTINUOUS
 62
     7
 10
1.0972
 20
9.6423
 30
0
 11
0.9583
 21
9.7117
 31
0
  0
CIRCLE
  8
LAYER1
 10
1
 20
9.8089
 30
0
 40
0.2639
  0
LINE
  8
LAYER1
  6
CONTINUOUS
 62
     7
 10
0.875
 20
9.6839
 30
0
 11
0.875
 21
9.9339
 31
0
  0
LINE
  8
LAYER1
  6
CONTINUOUS
 62
     7
 10
0.875
 20
9.8089
 30
0
 11
0.5972
 21
9.8089
 31
0
  0
LINE
  8
LAYER1
  6
CONTINUOUS
 62
     7
 10
1.0972
 20
9.9895
 30
0
 11
0.875
 21
9.8784
 31
0
  0
LINE
  8
LAYER1
  6
CONTINUOUS
 62
     7
 10
1.0972
 20
10.2117
 30
0
 11
1.0972
 21
9.9895
 31
0
  0
ENDBLK
  8
LAYER1
  0
BLOCK
  8
LAYER1
  2
Group7
 70
     0
 10
0
 20
0
 30
0
  0
INSERT
  8
LAYER1
  2
Group6
 10
0
 20
0
 30
0
  0
ENDBLK
  8
LAYER1
  0
BLOCK
  8
LAYER1
  2
Group8
 70
     0
 10
0
 20
0
 30
0
  0
LINE
  8
LAYER1
  6
CONTINUOUS
 62
     7
 10
0.9722
 20
8.4339
 30
0
 11
1.375
 21
8.4339
 31
0
  0
SOLID
  8
LAYER1
 62
     7
 10
0.9722
 20
8.3367
 30
0
 11
0.875
 21
8.3089
 31
0
 12
0.875
 22
8.3645
 32
0
 13
0.875
 23
8.3367
 33
0
  0
ENDBLK
  8
LAYER1
  0
BLOCK
  8
LAYER1
  2
Group9
 70
     0
 10
0
 20
0
 30
0
  0
LINE
  8
LAYER1
  6
CONTINUOUS
 62
     7
 10
1.0972
 20
9.6423
 30
0
 11
1.0972
 21
9.4061
 31
0
  0
CIRCLE
  8
LAYER1
 10
0.9722
 20
8.3367
 30
0
 40
0.2639
  0
LINE
  8
LAYER1
  6
CONTINUOUS
 62
     7
 10
0.9722
 20
8.1423
 30
0
 11
0.9722
 21
8.545
 31
0
  0
LINE
  8
LAYER1
  6
CONTINUOUS
 62
     7
 10
0.9722
 20
8.2395
 30
0
 11
1.375
 21
8.2395
 31
0
  0
LINE
  8
LAYER1
  6
CONTINUOUS
 62
     7
 10
0.9722
 20
8.3367
 30
0
 11
0.5694
 21
8.3367
 31
0
  0
INSERT
  8
LAYER1
  2
Group8
 10
0
 20
0
 30
0
  0
ENDBLK
  8
LAYER1
  0
BLOCK
  8
LAYER1
  2
Group10
 70
     0
 10
0
 20
0
 30
0
  0
INSERT
  8
LAYER1
  2
Group9
 10
0
 20
0
 30
0
  0
ENDBLK
  8
LAYER1
  0
BLOCK
  8
LAYER1
  2
Group11
 70
     0
 10
0
 20
0
 30
0
  0
LINE
  8
LAYER1
  6
CONTINUOUS
 62
     7
 10
0.9722
 20
6.9617
 30
0
 11
1.375
 21
6.9617
 31
0
  0
SOLID
  8
LAYER1
 62
     7
 10
0.9583
 20
6.8228
 30
0
 11
0.8611
 21
6.8645
 31
0
 12
0.9028
 22
6.9061
 32
0
 13
0.875
 23
6.8784
 33
0
  0
ENDBLK
  8
LAYER1
  0
BLOCK
  8
LAYER1
  2
Group12
 70
     0
 10
0
 20
0
 30
0
  0
LINE
  8
LAYER1
  6
CONTINUOUS
 62
     7
 10
0.875
 20
8.3367
 30
0
 11
0.8472
 21
8.3367
 31
0
  0
CIRCLE
  8
LAYER1
 10
0.9722
 20
6.8506
 30
0
 40
0.2639
  0
LINE
  8
LAYER1
  6
CONTINUOUS
 62
     7
 10
0.9722
 20
6.67
 30
0
 11
0.9722
 21
7.045
 31
0
  0
LINE
  8
LAYER1
  6
CONTINUOUS
 62
     7
 10
0.9722
 20
6.7534
 30
0
 11
1.375
 21
6.7534
 31
0
  0
LINE
  8
LAYER1
  6
CONTINUOUS
 62
     7
 10
0.7778
 20
6.9617
 30
0
 11
0.5694
 21
6.9617
 31
0
  0
INSERT
  8
LAYER1
  2
Group11
 10
0
 20
0
 30
0
  0
ENDBLK
  8
LAYER1
  0
BLOCK
  8
LAYER1
  2
Group13
 70
     0
 10
0
 20
0
 30
0
  0
INSERT
  8
LAYER1
  2
Group12
 10
0
 20
0
 30
0
  0
ENDBLK
  8
LAYER1
  0
BLOCK
  8
LAYER1
  2
Group14
 70
     0
 10
0
 20
0
 30
0
  0
LINE
  8
LAYER1
  6
CONTINUOUS
 62
     7
 10
0.875
 20
6.8784
 30
0
 11
0.7778
 21
6.9617
 31
0
  0
SOLID
  8
LAYER1
 62
     7
 10
1.0278
 20
5.3784
 30
0
 11
1.125
 21
5.4061
 31
0
 12
1.125
 22
5.3506
 32
0
 13
1.125
 23
5.3784
 33
0
  0
ENDBLK
  8
LAYER1
  0
BLOCK
  8
LAYER1
  2
Group15
 70
     0
 10
0
 20
0
 30
0
  0
INSERT
  8
LAYER1
  2
Group14
 10
0
 20
0
 30
0
  0
LINE
  8
LAYER1
  6
CONTINUOUS
 62
     7
 10
1.1528
 20
5.3784
 30
0
 11
1.125
 21
5.3784
 31
0
  0
CIRCLE
  8
LAYER1
 10
0.9722
 20
5.3645
 30
0
 40
0.2639
  0
LINE
  8
LAYER1
  6
CONTINUOUS
 62
     7
 10
1.0278
 20
5.1839
 30
0
 11
1.0278
 21
5.5589
 31
0
  0
LINE
  8
LAYER1
  6
CONTINUOUS
 62
     7
 10
1.0278
 20
5.2673
 30
0
 11
1.375
 21
5.2673
 31
0
  0
LINE
  8
LAYER1
  6
CONTINUOUS
 62
     7
 10
1.1528
 20
5.3784
 30
0
 11
1.1528
 21
5.2811
 31
0
  0
LINE
  8
LAYER1
  6
CONTINUOUS
 62
     7
 10
0.9722
 20
5.2673
 30
0
 11
0.5694
 21
5.2673
 31
0
  0
LINE
  8
LAYER1
  6
CONTINUOUS
 62
     7
 10
1.0278
 20
5.4756
 30
0
 11
1.375
 21
5.4756
 31
0
  0
ENDBLK
  8
LAYER1
  0
BLOCK
  8
LAYER1
  2
Group16
 70
     0
 10
0
 20
0
 30
0
  0
LINE
  8
LAYER1
  6
CONTINUOUS
 62
     7
 10
0.9722
 20
5.4756
 30
0
 11
0.9722
 21
5.2673
 31
0
  0
SOLID
  8
LAYER1
 62
     7
 10
1.0278
 20
3.9061
 30
0
 11
1.125
 21
3.9339
 31
0
 12
1.125
 22
3.8784
 32
0
 13
1.125
 23
3.9061
 33
0
  0
ENDBLK
  8
LAYER1
  0
BLOCK
  8
LAYER1
  2
Group17
 70
     0
 10
0
 20
0
 30
0
  0
INSERT
  8
LAYER1
  2
Group16
 10
0
 20
0
 30
0
  0
LINE
  8
LAYER1
  6
CONTINUOUS
 62
     7
 10
1.1667
 20
3.9061
 30
0
 11
1.125
 21
3.9061
 31
0
  0
CIRCLE
  8
LAYER1
 10
0.9722
 20
3.8923
 30
0
 40
0.2639
  0
LINE
  8
LAYER1
  6
CONTINUOUS
 62
     7
 10
1.0278
 20
3.6978
 30
0
 11
1.0278
 21
4.1006
 31
0
  0
LINE
  8
LAYER1
  6
CONTINUOUS
 62
     7
 10
0.9722
 20
4.1006
 30
0
 11
0.9722
 21
4.0034
 31
0
  0
LINE
  8
LAYER1
  6
CONTINUOUS
 62
     7
 10
1.1667
 20
3.9061
 30
0
 11
1.1667
 21
3.8089
 31
0
  0
LINE
  8
LAYER1
  6
CONTINUOUS
 62
     7
 10
0.9722
 20
3.6978
 30
0
 11
0.5694
 21
3.6978
 31
0
  0
LINE
  8
LAYER1
  6
CONTINUOUS
 62
     7
 10
0.9722
 20
4.0034
 30
0
 11
0.5694
 21
4.0034
 31
0
  0
LINE
  8
LAYER1
  6
CONTINUOUS
 62
     7
 10
0.9722
 20
3.8089
 30
0
 11
0.9722
 21
3.6978
 31
0
  0
LINE
  8
LAYER1
  6
CONTINUOUS
 62
     7
 10
1.0278
 20
4.0034
 30
0
 11
1.375
 21
4.0034
 31
0
  0
ENDBLK
  8
LAYER1
  0
BLOCK
  8
LAYER1
  2
Group18
 70
     0
 10
0
 20
0
 30
0
  0
INSERT
  8
LAYER1
  2
Group17
 10
0
 20
0
 30
0
  0
ENDBLK
  8
LAYER1
  0
BLOCK
  8
LAYER1
  2
Group19
 70
     0
 10
0
 20
0
 30
0
  0
LINE
  8
LAYER1
  6
CONTINUOUS
 62
     7
 10
0.7778
 20
2.42
 30
0
 11
0.8056
 21
2.42
 31
0
  0
LINE
  8
LAYER1
  6
CONTINUOUS
 62
     7
 10
0.8472
 20
2.42
 30
0
 11
0.875
 21
2.42
 31
0
  0
LINE
  8
LAYER1
  6
CONTINUOUS
 62
     7
 10
0.9167
 20
2.42
 30
0
 11
0.9444
 21
2.42
 31
0
  0
LINE
  8
LAYER1
  6
CONTINUOUS
 62
     7
 10
0.9861
 20
2.42
 30
0
 11
1.0139
 21
2.42
 31
0
  0
LINE
  8
LAYER1
  6
CONTINUOUS
 62
     7
 10
1.0556
 20
2.42
 30
0
 11
1.0833
 21
2.42
 31
0
  0
ENDBLK
  8
LAYER1
  0
BLOCK
  8
LAYER1
  2
Group20
 70
     0
 10
0
 20
0
 30
0
  0
LINE
  8
LAYER1
  6
CONTINUOUS
 62
     7
 10
1.0278
 20
3.8089
 30
0
 11
1.375
 21
3.8089
 31
0
  0
LINE
  8
LAYER1
  6
CONTINUOUS
 62
     7
 10
0.7778
 20
2.295
 30
0
 11
1.1528
 21
2.295
 31
0
  0
CIRCLE
  8
LAYER1
 10
0.9722
 20
2.42
 30
0
 40
0.3194
  0
LINE
  8
LAYER1
  6
CONTINUOUS
 62
     7
 10
1.1528
 20
2.295
 30
0
 11
1.1528
 21
2.2395
 31
0
  0
LINE
  8
LAYER1
  6
CONTINUOUS
 62
     7
 10
0.7778
 20
2.295
 30
0
 11
0.7778
 21
2.0311
 31
0
  0
LINE
  8
LAYER1
  6
CONTINUOUS
 62
     7
 10
0.9722
 20
2.2811
 30
0
 11
0.875
 21
2.17
 31
0
  0
LINE
  8
LAYER1
  6
CONTINUOUS
 62
     7
 10
0.9722
 20
2.2811
 30
0
 11
1.0694
 21
2.17
 31
0
  0
LINE
  8
LAYER1
  6
CONTINUOUS
 62
     7
 10
0.875
 20
2.17
 30
0
 11
0.875
 21
2.0311
 31
0
  0
LINE
  8
LAYER1
  6
DASH1
 62
     7
 10
0.7778
 20
2.42
 30
0
 11
1.1528
 21
2.42
 31
0
  0
INSERT
  8
LAYER1
  2
Group19
 10
0
 20
0
 30
0
  0
LINE
  8
LAYER1
  6
CONTINUOUS
 62
     7
 10
1.125
 20
2.42
 30
0
 11
1.1389
 21
2.42
 31
0
  0
LINE
  8
LAYER1
  6
CONTINUOUS
 62
     7
 10
0.7778
 20
2.545
 30
0
 11
1.1528
 21
2.545
 31
0
  0
LINE
  8
LAYER1
  6
CONTINUOUS
 62
     7
 10
0.9722
 20
2.545
 30
0
 11
0.9722
 21
2.8228
 31
0
  0
ENDBLK
  8
LAYER1
  0
BLOCK
  8
LAYER1
  2
Group21
 70
     0
 10
0
 20
0
 30
0
  0
INSERT
  8
LAYER1
  2
Group20
 10
0
 20
0
 30
0
  0
ENDBLK
  8
LAYER1
  0
BLOCK
  8
LAYER1
  2
Group22
 70
     0
 10
0
 20
0
 30
0
  0
LINE
  8
LAYER1
  6
CONTINUOUS
 62
     7
 10
1.0694
 20
2.17
 30
0
 11
1.0694
 21
2.0311
 31
0
  0
SOLID
  8
LAYER1
 62
     7
 10
3.0556
 20
9.7117
 30
0
 11
2.9583
 21
9.7395
 31
0
 12
2.9722
 22
9.7811
 32
0
 13
2.9583
 23
9.7673
 33
0
  0
ENDBLK
  8
LAYER1
  0
BLOCK
  8
LAYER1
  2
Group23
 70
     0
 10
0
 20
0
 30
0
  0
INSERT
  8
LAYER1
  2
Group22
 10
0
 20
0
 30
0
  0
LINE
  8
LAYER1
  6
CONTINUOUS
 62
     7
 10
2.9306
 20
9.7811
 30
0
 11
2.9583
 21
9.7673
 31
0
  0
CIRCLE
  8
LAYER1
 10
3.0556
 20
9.8367
 30
0
 40
0.2639
  0
LINE
  8
LAYER1
  6
CONTINUOUS
 62
     7
 10
2.9306
 20
9.7117
 30
0
 11
2.9306
 21
9.9617
 31
0
  0
LINE
  8
LAYER1
  6
CONTINUOUS
 62
     7
 10
2.9306
 20
9.8367
 30
0
 11
2.6806
 21
9.8367
 31
0
  0
LINE
  8
LAYER1
  6
CONTINUOUS
 62
     7
 10
3.1806
 20
9.6561
 30
0
 11
3.1806
 21
9.4339
 31
0
  0
LINE
  8
LAYER1
  6
CONTINUOUS
 62
     7
 10
3.1806
 20
10.0311
 30
0
 11
2.9306
 21
9.9061
 31
0
  0
LINE
  8
LAYER1
  6
CONTINUOUS
 62
     7
 10
3.1806
 20
10.0311
 30
0
 11
3.1806
 21
10.2395
 31
0
  0
ENDBLK
  8
LAYER1
  0
BLOCK
  8
LAYER1
  2
Group24
 70
     0
 10
0
 20
0
 30
0
  0
INSERT
  8
LAYER1
  2
Group23
 10
0
 20
0
 30
0
  0
ENDBLK
  8
LAYER1
  0
BLOCK
  8
LAYER1
  2
Group25
 70
     0
 10
0
 20
0
 30
0
  0
LINE
  8
LAYER1
  6
CONTINUOUS
 62
     7
 10
3.0833
 20
8.4478
 30
0
 11
3.4722
 21
8.4478
 31
0
  0
SOLID
  8
LAYER1
 62
     7
 10
2.9167
 20
8.3506
 30
0
 11
3.0139
 21
8.3784
 31
0
 12
3.0139
 22
8.3228
 32
0
 13
3.0139
 23
8.3506
 33
0
  0
ENDBLK
  8
LAYER1
  0
BLOCK
  8
LAYER1
  2
Group26
 70
     0
 10
0
 20
0
 30
0
  0
LINE
  8
LAYER1
  6
CONTINUOUS
 62
     7
 10
2.9306
 20
9.7811
 30
0
 11
3.1806
 21
9.6561
 31
0
  0
CIRCLE
  8
LAYER1
 10
3.0833
 20
8.3367
 30
0
 40
0.2639
  0
LINE
  8
LAYER1
  6
CONTINUOUS
 62
     7
 10
3.0833
 20
8.1561
 30
0
 11
3.0833
 21
8.5311
 31
0
  0
LINE
  8
LAYER1
  6
CONTINUOUS
 62
     7
 10
3.0833
 20
8.2395
 30
0
 11
3.4722
 21
8.2395
 31
0
  0
LINE
  8
LAYER1
  6
CONTINUOUS
 62
     7
 10
3.0833
 20
8.3506
 30
0
 11
2.6806
 21
8.3506
 31
0
  0
INSERT
  8
LAYER1
  2
Group25
 10
0
 20
0
 30
0
  0
ENDBLK
  8
LAYER1
  0
BLOCK
  8
LAYER1
  2
Group27
 70
     0
 10
0
 20
0
 30
0
  0
INSERT
  8
LAYER1
  2
Group26
 10
0
 20
0
 30
0
  0
ENDBLK
  8
LAYER1
  0
BLOCK
  8
LAYER1
  2
Group28
 70
     0
 10
0
 20
0
 30
0
  0
LINE
  8
LAYER1
  6
CONTINUOUS
 62
     7
 10
3.0833
 20
6.9756
 30
0
 11
3.4861
 21
6.9756
 31
0
  0
SOLID
  8
LAYER1
 62
     7
 10
2.875
 20
6.9756
 30
0
 11
2.9861
 21
6.9478
 31
0
 12
2.9583
 22
6.9061
 32
0
 13
2.9722
 23
6.9339
 33
0
  0
ENDBLK
  8
LAYER1
  0
BLOCK
  8
LAYER1
  2
Group29
 70
     0
 10
0
 20
0
 30
0
  0
LINE
  8
LAYER1
  6
CONTINUOUS
 62
     7
 10
3.0417
 20
8.3506
 30
0
 11
3.0139
 21
8.3506
 31
0
  0
CIRCLE
  8
LAYER1
 10
3.0833
 20
6.8645
 30
0
 40
0.2639
  0
LINE
  8
LAYER1
  6
CONTINUOUS
 62
     7
 10
3.0833
 20
6.6839
 30
0
 11
3.0833
 21
7.0589
 31
0
  0
LINE
  8
LAYER1
  6
CONTINUOUS
 62
     7
 10
3.0833
 20
6.7673
 30
0
 11
3.4861
 21
6.7673
 31
0
  0
LINE
  8
LAYER1
  6
CONTINUOUS
 62
     7
 10
2.875
 20
6.9756
 30
0
 11
2.6806
 21
6.9756
 31
0
  0
INSERT
  8
LAYER1
  2
Group28
 10
0
 20
0
 30
0
  0
ENDBLK
  8
LAYER1
  0
BLOCK
  8
LAYER1
  2
Group30
 70
     0
 10
0
 20
0
 30
0
  0
INSERT
  8
LAYER1
  2
Group29
 10
0
 20
0
 30
0
  0
ENDBLK
  8
LAYER1
  0
BLOCK
  8
LAYER1
  2
Group31
 70
     0
 10
0
 20
0
 30
0
  0
SOLID
  8
LAYER1
 62
     7
 10
3.2083
 20
5.4061
 30
0
 11
3.1111
 21
5.3784
 31
0
 12
3.1111
 22
5.42
 32
0
 13
3.1111
 23
5.4061
 33
0
  0
ENDBLK
  8
LAYER1
  0
BLOCK
  8
LAYER1
  2
Group32
 70
     0
 10
0
 20
0
 30
0
  0
LINE
  8
LAYER1
  6
CONTINUOUS
 62
     7
 10
3.0833
 20
6.8784
 30
0
 11
2.9722
 21
6.9339
 31
0
  0
CIRCLE
  8
LAYER1
 10
3.0833
 20
5.3923
 30
0
 40
0.2639
  0
INSERT
  8
LAYER1
  2
Group31
 10
0
 20
0
 30
0
  0
LINE
  8
LAYER1
  6
CONTINUOUS
 62
     7
 10
3.1111
 20
5.4061
 30
0
 11
3.0833
 21
5.4061
 31
0
  0
LINE
  8
LAYER1
  6
CONTINUOUS
 62
     7
 10
3.0833
 20
5.2117
 30
0
 11
3.0833
 21
5.5867
 31
0
  0
LINE
  8
LAYER1
  6
CONTINUOUS
 62
     7
 10
3.0833
 20
5.295
 30
0
 11
3.4722
 21
5.295
 31
0
  0
LINE
  8
LAYER1
  6
CONTINUOUS
 62
     7
 10
3.2083
 20
5.4061
 30
0
 11
3.2083
 21
5.295
 31
0
  0
LINE
  8
LAYER1
  6
CONTINUOUS
 62
     7
 10
3
 20
5.295
 30
0
 11
2.6806
 21
5.295
 31
0
  0
LINE
  8
LAYER1
  6
CONTINUOUS
 62
     7
 10
3.0833
 20
5.5034
 30
0
 11
3.4722
 21
5.5034
 31
0
  0
LINE
  8
LAYER1
  6
CONTINUOUS
 62
     7
 10
3
 20
5.5034
 30
0
 11
3
 21
5.295
 31
0
  0
ENDBLK
  8
LAYER1
  0
BLOCK
  8
LAYER1
  2
Group33
 70
     0
 10
0
 20
0
 30
0
  0
INSERT
  8
LAYER1
  2
Group32
 10
0
 20
0
 30
0
  0
ENDBLK
  8
LAYER1
  0
BLOCK
  8
LAYER1
  2
Group34
 70
     0
 10
0
 20
0
 30
0
  0
LINE
  8
LAYER1
  6
CONTINUOUS
 62
     7
 10
3.2083
 20
5.4061
 30
0
 11
3.0833
 21
5.4061
 31
0
  0
SOLID
  8
LAYER1
 62
     7
 10
3.2778
 20
3.92
 30
0
 11
3.1806
 21
3.9478
 31
0
 12
3.1806
 22
3.9061
 32
0
 13
3.1806
 23
3.92
 33
0
  0
ENDBLK
  8
LAYER1
  0
BLOCK
  8
LAYER1
  2
Group35
 70
     0
 10
0
 20
0
 30
0
  0
INSERT
  8
LAYER1
  2
Group34
 10
0
 20
0
 30
0
  0
LINE
  8
LAYER1
  6
CONTINUOUS
 62
     7
 10
3.125
 20
3.92
 30
0
 11
3.1806
 21
3.92
 31
0
  0
CIRCLE
  8
LAYER1
 10
3.0833
 20
3.92
 30
0
 40
0.2639
  0
LINE
  8
LAYER1
  6
CONTINUOUS
 62
     7
 10
3.125
 20
3.7256
 30
0
 11
3.125
 21
4.1284
 31
0
  0
LINE
  8
LAYER1
  6
CONTINUOUS
 62
     7
 10
3.0833
 20
4.1284
 30
0
 11
3.0833
 21
4.0311
 31
0
  0
LINE
  8
LAYER1
  6
CONTINUOUS
 62
     7
 10
3.2778
 20
3.92
 30
0
 11
3.2778
 21
3.8228
 31
0
  0
LINE
  8
LAYER1
  6
CONTINUOUS
 62
     7
 10
3.0833
 20
3.7256
 30
0
 11
2.6806
 21
3.7256
 31
0
  0
LINE
  8
LAYER1
  6
CONTINUOUS
 62
     7
 10
3.0833
 20
4.0311
 30
0
 11
2.6806
 21
4.0311
 31
0
  0
LINE
  8
LAYER1
  6
CONTINUOUS
 62
     7
 10
3.0833
 20
3.8228
 30
0
 11
3.0833
 21
3.7256
 31
0
  0
LINE
  8
LAYER1
  6
CONTINUOUS
 62
     7
 10
3.125
 20
4.0311
 30
0
 11
3.4861
 21
4.0311
 31
0
  0
ENDBLK
  8
LAYER1
  0
BLOCK
  8
LAYER1
  2
Group36
 70
     0
 10
0
 20
0
 30
0
  0
INSERT
  8
LAYER1
  2
Group35
 10
0
 20
0
 30
0
  0
ENDBLK
  8
LAYER1
  0
BLOCK
  8
LAYER1
  2
Group37
 70
     0
 10
0
 20
0
 30
0
  0
LINE
  8
LAYER1
  6
CONTINUOUS
 62
     7
 10
2.875
 20
2.3784
 30
0
 11
2.9028
 21
2.3784
 31
0
  0
LINE
  8
LAYER1
  6
CONTINUOUS
 62
     7
 10
2.9444
 20
2.3784
 30
0
 11
2.9722
 21
2.3784
 31
0
  0
LINE
  8
LAYER1
  6
CONTINUOUS
 62
     7
 10
3.0139
 20
2.3784
 30
0
 11
3.0417
 21
2.3784
 31
0
  0
LINE
  8
LAYER1
  6
CONTINUOUS
 62
     7
 10
3.0833
 20
2.3784
 30
0
 11
3.1111
 21
2.3784
 31
0
  0
LINE
  8
LAYER1
  6
CONTINUOUS
 62
     7
 10
3.1528
 20
2.3784
 30
0
 11
3.1806
 21
2.3784
 31
0
  0
ENDBLK
  8
LAYER1
  0
BLOCK
  8
LAYER1
  2
Group38
 70
     0
 10
0
 20
0
 30
0
  0
LINE
  8
LAYER1
  6
CONTINUOUS
 62
     7
 10
2.875
 20
2.4339
 30
0
 11
2.9028
 21
2.4339
 31
0
  0
LINE
  8
LAYER1
  6
CONTINUOUS
 62
     7
 10
2.9444
 20
2.4339
 30
0
 11
2.9722
 21
2.4339
 31
0
  0
LINE
  8
LAYER1
  6
CONTINUOUS
 62
     7
 10
3.0139
 20
2.4339
 30
0
 11
3.0417
 21
2.4339
 31
0
  0
LINE
  8
LAYER1
  6
CONTINUOUS
 62
     7
 10
3.0833
 20
2.4339
 30
0
 11
3.1111
 21
2.4339
 31
0
  0
LINE
  8
LAYER1
  6
CONTINUOUS
 62
     7
 10
3.1528
 20
2.4339
 30
0
 11
3.1806
 21
2.4339
 31
0
  0
ENDBLK
  8
LAYER1
  0
BLOCK
  8
LAYER1
  2
Group39
 70
     0
 10
0
 20
0
 30
0
  0
LINE
  8
LAYER1
  6
CONTINUOUS
 62
     7
 10
2.875
 20
2.5034
 30
0
 11
2.9028
 21
2.5034
 31
0
  0
LINE
  8
LAYER1
  6
CONTINUOUS
 62
     7
 10
2.9444
 20
2.5034
 30
0
 11
2.9722
 21
2.5034
 31
0
  0
LINE
  8
LAYER1
  6
CONTINUOUS
 62
     7
 10
3.0139
 20
2.5034
 30
0
 11
3.0417
 21
2.5034
 31
0
  0
LINE
  8
LAYER1
  6
CONTINUOUS
 62
     7
 10
3.0833
 20
2.5034
 30
0
 11
3.1111
 21
2.5034
 31
0
  0
LINE
  8
LAYER1
  6
CONTINUOUS
 62
     7
 10
3.1528
 20
2.5034
 30
0
 11
3.1806
 21
2.5034
 31
0
  0
ENDBLK
  8
LAYER1
  0
BLOCK
  8
LAYER1
  2
Group40
 70
     0
 10
0
 20
0
 30
0
  0
LINE
  8
LAYER1
  6
CONTINUOUS
 62
     7
 10
3.2778
 20
2.3089
 30
0
 11
3.2778
 21
2.2534
 31
0
  0
LINE
  8
LAYER1
  6
CONTINUOUS
 62
     7
 10
2.875
 20
2.3089
 30
0
 11
3.2778
 21
2.3089
 31
0
  0
LINE
  8
LAYER1
  6
DASH1
 62
     7
 10
2.875
 20
2.3784
 30
0
 11
3.2778
 21
2.3784
 31
0
  0
INSERT
  8
LAYER1
  2
Group37
 10
0
 20
0
 30
0
  0
LINE
  8
LAYER1
  6
CONTINUOUS
 62
     7
 10
3.2222
 20
2.3784
 30
0
 11
3.25
 21
2.3784
 31
0
  0
LINE
  8
LAYER1
  6
DASH1
 62
     7
 10
2.875
 20
2.4339
 30
0
 11
3.2778
 21
2.4339
 31
0
  0
INSERT
  8
LAYER1
  2
Group38
 10
0
 20
0
 30
0
  0
LINE
  8
LAYER1
  6
CONTINUOUS
 62
     7
 10
3.2222
 20
2.4339
 30
0
 11
3.25
 21
2.4339
 31
0
  0
LINE
  8
LAYER1
  6
DASH1
 62
     7
 10
2.875
 20
2.5034
 30
0
 11
3.2778
 21
2.5034
 31
0
  0
INSERT
  8
LAYER1
  2
Group39
 10
0
 20
0
 30
0
  0
LINE
  8
LAYER1
  6
CONTINUOUS
 62
     7
 10
3.2222
 20
2.5034
 30
0
 11
3.25
 21
2.5034
 31
0
  0
ENDBLK
  8
LAYER1
  0
BLOCK
  8
LAYER1
  2
Group41
 70
     0
 10
0
 20
0
 30
0
  0
LINE
  8
LAYER1
  6
CONTINUOUS
 62
     7
 10
3.125
 20
3.8228
 30
0
 11
3.4861
 21
3.8228
 31
0
  0
CIRCLE
  8
LAYER1
 10
3.0833
 20
2.4339
 30
0
 40
0.3194
  0
LINE
  8
LAYER1
  6
CONTINUOUS
 62
     7
 10
2.875
 20
2.3089
 30
0
 11
2.875
 21
2.0311
 31
0
  0
LINE
  8
LAYER1
  6
CONTINUOUS
 62
     7
 10
3.0833
 20
2.2811
 30
0
 11
2.9861
 21
2.1839
 31
0
  0
LINE
  8
LAYER1
  6
CONTINUOUS
 62
     7
 10
3.0833
 20
2.2811
 30
0
 11
3.1806
 21
2.1839
 31
0
  0
LINE
  8
LAYER1
  6
CONTINUOUS
 62
     7
 10
2.9861
 20
2.1839
 30
0
 11
2.9861
 21
2.045
 31
0
  0
INSERT
  8
LAYER1
  2
Group40
 10
0
 20
0
 30
0
  0
LINE
  8
LAYER1
  6
CONTINUOUS
 62
     7
 10
2.875
 20
2.5589
 30
0
 11
3.2778
 21
2.5589
 31
0
  0
LINE
  8
LAYER1
  6
CONTINUOUS
 62
     7
 10
3.0833
 20
2.5589
 30
0
 11
3.0833
 21
2.8367
 31
0
  0
ENDBLK
  8
LAYER1
  0
BLOCK
  8
LAYER1
  2
Group42
 70
     0
 10
0
 20
0
 30
0
  0
INSERT
  8
LAYER1
  2
Group41
 10
0
 20
0
 30
0
  0
ENDBLK
  8
LAYER1
  0
BLOCK
  8
LAYER1
  2
Group43
 70
     0
 10
0
 20
0
 30
0
  0
LINE
  8
LAYER1
  6
CONTINUOUS
 62
     7
 10
3.1806
 20
2.1839
 30
0
 11
3.1806
 21
2.045
 31
0
  0
CIRCLE
  8
LAYER1
 10
5.0694
 20
9.8784
 30
0
 40
0.3194
  0
LINE
  8
LAYER1
  6
CONTINUOUS
 62
     7
 10
5.0556
 20
9.6978
 30
0
 11
5.0556
 21
9.4895
 31
0
  0
LINE
  8
LAYER1
  6
CONTINUOUS
 62
     7
 10
4.9306
 20
10.0034
 30
0
 11
5.1806
 21
10.0034
 31
0
  0
LINE
  8
LAYER1
  6
CONTINUOUS
 62
     7
 10
5.0556
 20
10.0034
 30
0
 11
5.0556
 21
10.2811
 31
0
  0
POLYLINE
  8
LAYER1
 66
     1
 62
     7
 70
     1
 40
0.037
 41
0.037
  0
VERTEX
  8
LAYER1
 10
5.2315
 20
9.8969
 30
0
 42
1
 70
     0
  0
VERTEX
  8
LAYER1
 10
5.2685
 20
9.8598
 30
0
 42
1
 70
     0
  0
SEQEND
  0
CIRCLE
  8
LAYER1
 10
5.25
 20
9.8784
 30
0
 40
0.0556
  0
CIRCLE
  8
LAYER1
 10
5.0556
 20
9.6978
 30
0
 40
0.0556
  0
CIRCLE
  8
LAYER1
 10
5.0556
 20
9.6978
 30
0
 40
0.0556
  0
ENDBLK
  8
LAYER1
  0
BLOCK
  8
LAYER1
  2
Group44
 70
     0
 10
0
 20
0
 30
0
  0
LINE
  8
LAYER1
  6
CONTINUOUS
 62
     7
 10
5.0556
 20
6.8367
 30
0
 11
5.0556
 21
7.1284
 31
0
  0
ENDBLK
  8
LAYER1
  0
BLOCK
  8
LAYER1
  2
Group45
 70
     0
 10
0
 20
0
 30
0
  0
LINE
  8
LAYER1
  6
CONTINUOUS
 62
     7
 10
4.8611
 20
6.8367
 30
0
 11
5.25
 21
6.8367
 31
0
  0
POLYLINE
  8
LAYER1
  6
CONTINUOUS
 62
     7
 66
     1
 70
     0
 40
0.0039
 41
0.0039
  0
VERTEX
  8
LAYER1
 10
4.8611
 20
5.8089
 30
0
 70
     0
  0
VERTEX
  8
LAYER1
 10
5.2361
 20
5.8089
 30
0
 70
     0
  0
VERTEX
  8
LAYER1
 10
5.2361
 20
5.7395
 30
0
 70
     0
  0
SEQEND
  0
ENDBLK
  8
LAYER1
  0
BLOCK
  8
LAYER1
  2
Group46
 70
     0
 10
0
 20
0
 30
0
  0
INSERT
  8
LAYER1
  2
Group45
 10
0
 20
0
 30
0
  0
ENDBLK
  8
LAYER1
  0
BLOCK
  8
LAYER1
  2
Group47
 70
     0
 10
0
 20
0
 30
0
  0
LINE
  8
LAYER1
  6
CONTINUOUS
 62
     7
 10
4.875
 20
4.2117
 30
0
 11
4.9028
 21
4.2117
 31
0
  0
LINE
  8
LAYER1
  6
CONTINUOUS
 62
     7
 10
4.9444
 20
4.2117
 30
0
 11
4.9722
 21
4.2117
 31
0
  0
LINE
  8
LAYER1
  6
CONTINUOUS
 62
     7
 10
5.0139
 20
4.2117
 30
0
 11
5.0417
 21
4.2117
 31
0
  0
LINE
  8
LAYER1
  6
CONTINUOUS
 62
     7
 10
5.0833
 20
4.2117
 30
0
 11
5.1111
 21
4.2117
 31
0
  0
LINE
  8
LAYER1
  6
CONTINUOUS
 62
     7
 10
5.1528
 20
4.2117
 30
0
 11
5.1806
 21
4.2117
 31
0
  0
ENDBLK
  8
LAYER1
  0
BLOCK
  8
LAYER1
  2
Group48
 70
     0
 10
0
 20
0
 30
0
  0
LINE
  8
LAYER1
  6
CONTINUOUS
 62
     7
 10
5.2222
 20
4.2117
 30
0
 11
5.2361
 21
4.2117
 31
0
  0
LINE
  8
LAYER1
  6
CONTINUOUS
 62
     7
 10
5.0556
 20
3.1284
 30
0
 11
4.9583
 21
3.0311
 31
0
  0
LINE
  8
LAYER1
  6
CONTINUOUS
 62
     7
 10
5.0556
 20
3.1284
 30
0
 11
5.1528
 21
3.0311
 31
0
  0
LINE
  8
LAYER1
  6
CONTINUOUS
 62
     7
 10
4.9583
 20
3.0311
 30
0
 11
4.9583
 21
2.8228
 31
0
  0
LINE
  8
LAYER1
  6
CONTINUOUS
 62
     7
 10
5.1528
 20
3.0311
 30
0
 11
5.1528
 21
2.8228
 31
0
  0
ENDBLK
  8
LAYER1
  0
BLOCK
  8
LAYER1
  2
Group49
 70
     0
 10
0
 20
0
 30
0
  0
INSERT
  8
LAYER1
  2
Group48
 10
0
 20
0
 30
0
  0
ENDBLK
  8
LAYER1
  0
BLOCK
  8
LAYER1
  2
Group50
 70
     0
 10
0
 20
0
 30
0
  0
LINE
  8
LAYER1
  6
CONTINUOUS
 62
     7
 10
5.0556
 20
3.1284
 30
0
 11
5.0556
 21
2.8228
 31
0
  0
LINE
  8
LAYER1
  6
CONTINUOUS
 62
     7
 10
5.0556
 20
1.9478
 30
0
 11
4.9583
 21
1.8506
 31
0
  0
LINE
  8
LAYER1
  6
CONTINUOUS
 62
     7
 10
5.0556
 20
1.9478
 30
0
 11
5.1528
 21
1.8506
 31
0
  0
LINE
  8
LAYER1
  6
CONTINUOUS
 62
     7
 10
4.9583
 20
1.8506
 30
0
 11
4.9583
 21
1.6561
 31
0
  0
ENDBLK
  8
LAYER1
  0
BLOCK
  8
LAYER1
  2
Group51
 70
     0
 10
0
 20
0
 30
0
  0
INSERT
  8
LAYER1
  2
Group50
 10
0
 20
0
 30
0
  0
ENDBLK
  8
LAYER1
  0
BLOCK
  8
LAYER1
  2
Group52
 70
     0
 10
0
 20
0
 30
0
  0
LINE
  8
LAYER1
  6
CONTINUOUS
 62
     7
 10
5.1528
 20
1.8506
 30
0
 11
5.1528
 21
1.6561
 31
0
  0
LINE
  8
LAYER1
  6
CONTINUOUS
 62
     7
 10
2.6806
 20
1.1284
 30
0
 11
2.9583
 21
1.1284
 31
0
  0
POLYLINE
  8
LAYER1
  6
CONTINUOUS
 62
     7
 66
     1
 70
     0
 40
0.0039
 41
0.0039
  0
VERTEX
  8
LAYER1
 10
3.0139
 20
1.1978
 30
0
 70
     0
  0
VERTEX
  8
LAYER1
 10
2.9583
 20
1.1284
 30
0
 70
     0
  0
VERTEX
  8
LAYER1
 10
3.0139
 20
1.0728
 30
0
 70
     0
  0
SEQEND
  0
LINE
  8
LAYER1
  6
CONTINUOUS
 62
     7
 10
3.4861
 20
1.1284
 30
0
 11
3.2083
 21
1.1284
 31
0
  0
ENDBLK
  8
LAYER1
  0
BLOCK
  8
LAYER1
  2
Group53
 70
     0
 10
0
 20
0
 30
0
  0
POLYLINE
  8
LAYER1
  6
CONTINUOUS
 62
     7
 66
     1
 70
     0
 40
0.0039
 41
0.0039
  0
VERTEX
  8
LAYER1
 10
3.1389
 20
1.1978
 30
0
 70
     0
  0
VERTEX
  8
LAYER1
 10
3.2083
 20
1.1284
 30
0
 70
     0
  0
VERTEX
  8
LAYER1
 10
3.1389
 20
1.0728
 30
0
 70
     0
  0
SEQEND
  0
LINE
  8
LAYER1
  6
CONTINUOUS
 62
     7
 10
0.9722
 20
1.17
 30
0
 11
0.9722
 21
0.92
 31
0
  0
CIRCLE
  8
LAYER1
 10
0.9722
 20
1.17
 30
0
 40
0.0556
  0
CIRCLE
  8
LAYER1
 10
0.9722
 20
1.17
 30
0
 40
0.0556
  0
ENDBLK
  8
LAYER1
  0
BLOCK
  8
LAYER1
  2
Group54
 70
     0
 10
0
 20
0
 30
0
  0
POLYLINE
  8
LAYER1
  6
CONTINUOUS
 62
     7
 66
     1
 70
     0
 40
0.0039
 41
0.0039
  0
VERTEX
  8
LAYER1
 10
10.4583
 20
9.4478
 30
0
 70
     0
  0
VERTEX
  8
LAYER1
 10
10.4368
 20
9.4522
 30
0
 70
     0
  0
VERTEX
  8
LAYER1
 10
10.4191
 20
9.4642
 30
0
 70
     0
  0
VERTEX
  8
LAYER1
 10
10.4072
 20
9.4818
 30
0
 70
     0
  0
VERTEX
  8
LAYER1
 10
10.4028
 20
9.5034
 30
0
 70
     0
  0
VERTEX
  8
LAYER1
 10
10.4028
 20
9.5034
 30
0
 70
     0
  0
VERTEX
  8
LAYER1
 10
10.4072
 20
9.5249
 30
0
 70
     0
  0
VERTEX
  8
LAYER1
 10
10.4191
 20
9.5426
 30
0
 70
     0
  0
VERTEX
  8
LAYER1
 10
10.4368
 20
9.5545
 30
0
 70
     0
  0
VERTEX
  8
LAYER1
 10
10.4583
 20
9.5589
 30
0
 70
     0
  0
SEQEND
  0
POLYLINE
  8
LAYER1
  6
CONTINUOUS
 62
     7
 66
     1
 70
     0
 40
0.0039
 41
0.0039
  0
VERTEX
  8
LAYER1
 10
10.4583
 20
9.3506
 30
0
 70
     0
  0
VERTEX
  8
LAYER1
 10
10.4368
 20
9.355
 30
0
 70
     0
  0
VERTEX
  8
LAYER1
 10
10.4191
 20
9.3669
 30
0
 70
     0
  0
VERTEX
  8
LAYER1
 10
10.4072
 20
9.3846
 30
0
 70
     0
  0
VERTEX
  8
LAYER1
 10
10.4028
 20
9.4061
 30
0
 70
     0
  0
VERTEX
  8
LAYER1
 10
10.4028
 20
9.4061
 30
0
 70
     0
  0
VERTEX
  8
LAYER1
 10
10.4072
 20
9.4277
 30
0
 70
     0
  0
VERTEX
  8
LAYER1
 10
10.4191
 20
9.4453
 30
0
 70
     0
  0
VERTEX
  8
LAYER1
 10
10.4368
 20
9.4573
 30
0
 70
     0
  0
VERTEX
  8
LAYER1
 10
10.4583
 20
9.4617
 30
0
 70
     0
  0
SEQEND
  0
POLYLINE
  8
LAYER1
  6
CONTINUOUS
 62
     7
 66
     1
 70
     0
 40
0.0039
 41
0.0039
  0
VERTEX
  8
LAYER1
 10
10.4583
 20
9.2534
 30
0
 70
     0
  0
VERTEX
  8
LAYER1
 10
10.4368
 20
9.2578
 30
0
 70
     0
  0
VERTEX
  8
LAYER1
 10
10.4191
 20
9.2697
 30
0
 70
     0
  0
VERTEX
  8
LAYER1
 10
10.4072
 20
9.2874
 30
0
 70
     0
  0
VERTEX
  8
LAYER1
 10
10.4028
 20
9.3089
 30
0
 70
     0
  0
VERTEX
  8
LAYER1
 10
10.4028
 20
9.3089
 30
0
 70
     0
  0
VERTEX
  8
LAYER1
 10
10.4072
 20
9.3305
 30
0
 70
     0
  0
VERTEX
  8
LAYER1
 10
10.4191
 20
9.3481
 30
0
 70
     0
  0
VERTEX
  8
LAYER1
 10
10.4368
 20
9.3601
 30
0
 70
     0
  0
VERTEX
  8
LAYER1
 10
10.4583
 20
9.3645
 30
0
 70
     0
  0
SEQEND
  0
POLYLINE
  8
LAYER1
  6
CONTINUOUS
 62
     7
 66
     1
 70
     0
 40
0.0039
 41
0.0039
  0
VERTEX
  8
LAYER1
 10
10.4583
 20
9.1423
 30
0
 70
     0
  0
VERTEX
  8
LAYER1
 10
10.4368
 20
9.1466
 30
0
 70
     0
  0
VERTEX
  8
LAYER1
 10
10.4191
 20
9.1586
 30
0
 70
     0
  0
VERTEX
  8
LAYER1
 10
10.4072
 20
9.1763
 30
0
 70
     0
  0
VERTEX
  8
LAYER1
 10
10.4028
 20
9.1978
 30
0
 70
     0
  0
VERTEX
  8
LAYER1
 10
10.4028
 20
9.1978
 30
0
 70
     0
  0
VERTEX
  8
LAYER1
 10
10.4072
 20
9.2193
 30
0
 70
     0
  0
VERTEX
  8
LAYER1
 10
10.4191
 20
9.237
 30
0
 70
     0
  0
VERTEX
  8
LAYER1
 10
10.4368
 20
9.249
 30
0
 70
     0
  0
VERTEX
  8
LAYER1
 10
10.4583
 20
9.2534
 30
0
 70
     0
  0
SEQEND
  0
LINE
  8
LAYER1
  6
CONTINUOUS
 62
     7
 10
10.4444
 20
9.5589
 30
0
 11
10.6944
 21
9.5589
 31
0
  0
LINE
  8
LAYER1
  6
CONTINUOUS
 62
     7
 10
10.4444
 20
9.1561
 30
0
 11
10.6944
 21
9.1561
 31
0
  0
POLYLINE
  8
LAYER1
  6
CONTINUOUS
 62
     7
 66
     1
 70
     0
 40
0.0039
 41
0.0039
  0
VERTEX
  8
LAYER1
 10
10.25
 20
9.5589
 30
0
 70
     0
  0
VERTEX
  8
LAYER1
 10
10.2715
 20
9.5545
 30
0
 70
     0
  0
VERTEX
  8
LAYER1
 10
10.2892
 20
9.5426
 30
0
 70
     0
  0
VERTEX
  8
LAYER1
 10
10.3012
 20
9.5249
 30
0
 70
     0
  0
VERTEX
  8
LAYER1
 10
10.3056
 20
9.5034
 30
0
 70
     0
  0
VERTEX
  8
LAYER1
 10
10.3056
 20
9.5034
 30
0
 70
     0
  0
VERTEX
  8
LAYER1
 10
10.3012
 20
9.4818
 30
0
 70
     0
  0
VERTEX
  8
LAYER1
 10
10.2892
 20
9.4642
 30
0
 70
     0
  0
VERTEX
  8
LAYER1
 10
10.2715
 20
9.4522
 30
0
 70
     0
  0
VERTEX
  8
LAYER1
 10
10.25
 20
9.4478
 30
0
 70
     0
  0
SEQEND
  0
POLYLINE
  8
LAYER1
  6
CONTINUOUS
 62
     7
 66
     1
 70
     0
 40
0.0039
 41
0.0039
  0
VERTEX
  8
LAYER1
 10
10.25
 20
9.4617
 30
0
 70
     0
  0
VERTEX
  8
LAYER1
 10
10.2715
 20
9.4573
 30
0
 70
     0
  0
VERTEX
  8
LAYER1
 10
10.2892
 20
9.4453
 30
0
 70
     0
  0
VERTEX
  8
LAYER1
 10
10.3012
 20
9.4277
 30
0
 70
     0
  0
VERTEX
  8
LAYER1
 10
10.3056
 20
9.4061
 30
0
 70
     0
  0
VERTEX
  8
LAYER1
 10
10.3056
 20
9.4061
 30
0
 70
     0
  0
VERTEX
  8
LAYER1
 10
10.3012
 20
9.3846
 30
0
 70
     0
  0
VERTEX
  8
LAYER1
 10
10.2892
 20
9.3669
 30
0
 70
     0
  0
VERTEX
  8
LAYER1
 10
10.2715
 20
9.355
 30
0
 70
     0
  0
VERTEX
  8
LAYER1
 10
10.25
 20
9.3506
 30
0
 70
     0
  0
SEQEND
  0
POLYLINE
  8
LAYER1
  6
CONTINUOUS
 62
     7
 66
     1
 70
     0
 40
0.0039
 41
0.0039
  0
VERTEX
  8
LAYER1
 10
10.25
 20
9.3645
 30
0
 70
     0
  0
VERTEX
  8
LAYER1
 10
10.2715
 20
9.3601
 30
0
 70
     0
  0
VERTEX
  8
LAYER1
 10
10.2892
 20
9.3481
 30
0
 70
     0
  0
VERTEX
  8
LAYER1
 10
10.3012
 20
9.3305
 30
0
 70
     0
  0
VERTEX
  8
LAYER1
 10
10.3056
 20
9.3089
 30
0
 70
     0
  0
VERTEX
  8
LAYER1
 10
10.3056
 20
9.3089
 30
0
 70
     0
  0
VERTEX
  8
LAYER1
 10
10.3012
 20
9.2874
 30
0
 70
     0
  0
VERTEX
  8
LAYER1
 10
10.2892
 20
9.2697
 30
0
 70
     0
  0
VERTEX
  8
LAYER1
 10
10.2715
 20
9.2578
 30
0
 70
     0
  0
VERTEX
  8
LAYER1
 10
10.25
 20
9.2534
 30
0
 70
     0
  0
SEQEND
  0
POLYLINE
  8
LAYER1
  6
CONTINUOUS
 62
     7
 66
     1
 70
     0
 40
0.0039
 41
0.0039
  0
VERTEX
  8
LAYER1
 10
10.25
 20
9.2534
 30
0
 70
     0
  0
VERTEX
  8
LAYER1
 10
10.2715
 20
9.249
 30
0
 70
     0
  0
VERTEX
  8
LAYER1
 10
10.2892
 20
9.237
 30
0
 70
     0
  0
VERTEX
  8
LAYER1
 10
10.3012
 20
9.2193
 30
0
 70
     0
  0
VERTEX
  8
LAYER1
 10
10.3056
 20
9.1978
 30
0
 70
     0
  0
VERTEX
  8
LAYER1
 10
10.3056
 20
9.1978
 30
0
 70
     0
  0
VERTEX
  8
LAYER1
 10
10.3012
 20
9.1763
 30
0
 70
     0
  0
VERTEX
  8
LAYER1
 10
10.2892
 20
9.1586
 30
0
 70
     0
  0
VERTEX
  8
LAYER1
 10
10.2715
 20
9.1466
 30
0
 70
     0
  0
VERTEX
  8
LAYER1
 10
10.25
 20
9.1423
 30
0
 70
     0
  0
SEQEND
  0
LINE
  8
LAYER1
  6
CONTINUOUS
 62
     7
 10
10
 20
9.5589
 30
0
 11
10.25
 21
9.5589
 31
0
  0
ENDBLK
  8
LAYER1
  0
BLOCK
  8
LAYER1
  2
Group55
 70
     0
 10
0
 20
0
 30
0
  0
LINE
  8
LAYER1
  6
CONTINUOUS
 62
     7
 10
10
 20
9.1561
 30
0
 11
10.25
 21
9.1561
 31
0
  0
SOLID
  8
LAYER1
 62
     7
 10
10.625
 20
8.0728
 30
0
 11
10.5417
 21
7.9895
 31
0
 12
10.5139
 22
8.045
 32
0
 13
10.5278
 23
8.0173
 33
0
  0
ENDBLK
  8
LAYER1
  0
BLOCK
  8
LAYER1
  2
Group56
 70
     0
 10
0
 20
0
 30
0
  0
INSERT
  8
LAYER1
  2
Group55
 10
0
 20
0
 30
0
  0
LINE
  8
LAYER1
  6
CONTINUOUS
 62
     7
 10
10.125
 20
7.7811
 30
0
 11
10.5278
 21
8.0173
 31
0
  0
POLYLINE
  8
LAYER1
  6
CONTINUOUS
 62
     7
 66
     1
 70
     0
 40
0.0039
 41
0.0039
  0
VERTEX
  8
LAYER1
 10
10.4583
 20
8.0034
 30
0
 70
     0
  0
VERTEX
  8
LAYER1
 10
10.4368
 20
8.0078
 30
0
 70
     0
  0
VERTEX
  8
LAYER1
 10
10.4191
 20
8.0197
 30
0
 70
     0
  0
VERTEX
  8
LAYER1
 10
10.4072
 20
8.0374
 30
0
 70
     0
  0
VERTEX
  8
LAYER1
 10
10.4028
 20
8.0589
 30
0
 70
     0
  0
VERTEX
  8
LAYER1
 10
10.4028
 20
8.0589
 30
0
 70
     0
  0
VERTEX
  8
LAYER1
 10
10.4072
 20
8.0805
 30
0
 70
     0
  0
VERTEX
  8
LAYER1
 10
10.4191
 20
8.0981
 30
0
 70
     0
  0
VERTEX
  8
LAYER1
 10
10.4368
 20
8.1101
 30
0
 70
     0
  0
VERTEX
  8
LAYER1
 10
10.4583
 20
8.1145
 30
0
 70
     0
  0
SEQEND
  0
POLYLINE
  8
LAYER1
  6
CONTINUOUS
 62
     7
 66
     1
 70
     0
 40
0.0039
 41
0.0039
  0
VERTEX
  8
LAYER1
 10
10.4583
 20
7.9061
 30
0
 70
     0
  0
VERTEX
  8
LAYER1
 10
10.4368
 20
7.9105
 30
0
 70
     0
  0
VERTEX
  8
LAYER1
 10
10.4191
 20
7.9225
 30
0
 70
     0
  0
VERTEX
  8
LAYER1
 10
10.4072
 20
7.9402
 30
0
 70
     0
  0
VERTEX
  8
LAYER1
 10
10.4028
 20
7.9617
 30
0
 70
     0
  0
VERTEX
  8
LAYER1
 10
10.4028
 20
7.9617
 30
0
 70
     0
  0
VERTEX
  8
LAYER1
 10
10.4072
 20
7.9832
 30
0
 70
     0
  0
VERTEX
  8
LAYER1
 10
10.4191
 20
8.0009
 30
0
 70
     0
  0
VERTEX
  8
LAYER1
 10
10.4368
 20
8.0129
 30
0
 70
     0
  0
VERTEX
  8
LAYER1
 10
10.4583
 20
8.0173
 30
0
 70
     0
  0
SEQEND
  0
POLYLINE
  8
LAYER1
  6
CONTINUOUS
 62
     7
 66
     1
 70
     0
 40
0.0039
 41
0.0039
  0
VERTEX
  8
LAYER1
 10
10.4583
 20
7.8089
 30
0
 70
     0
  0
VERTEX
  8
LAYER1
 10
10.4368
 20
7.8133
 30
0
 70
     0
  0
VERTEX
  8
LAYER1
 10
10.4191
 20
7.8253
 30
0
 70
     0
  0
VERTEX
  8
LAYER1
 10
10.4072
 20
7.8429
 30
0
 70
     0
  0
VERTEX
  8
LAYER1
 10
10.4028
 20
7.8645
 30
0
 70
     0
  0
VERTEX
  8
LAYER1
 10
10.4028
 20
7.8645
 30
0
 70
     0
  0
VERTEX
  8
LAYER1
 10
10.4072
 20
7.886
 30
0
 70
     0
  0
VERTEX
  8
LAYER1
 10
10.4191
 20
7.9037
 30
0
 70
     0
  0
VERTEX
  8
LAYER1
 10
10.4368
 20
7.9156
 30
0
 70
     0
  0
VERTEX
  8
LAYER1
 10
10.4583
 20
7.92
 30
0
 70
     0
  0
SEQEND
  0
POLYLINE
  8
LAYER1
  6
CONTINUOUS
 62
     7
 66
     1
 70
     0
 40
0.0039
 41
0.0039
  0
VERTEX
  8
LAYER1
 10
10.4583
 20
7.7117
 30
0
 70
     0
  0
VERTEX
  8
LAYER1
 10
10.4368
 20
7.7161
 30
0
 70
     0
  0
VERTEX
  8
LAYER1
 10
10.4191
 20
7.7281
 30
0
 70
     0
  0
VERTEX
  8
LAYER1
 10
10.4072
 20
7.7457
 30
0
 70
     0
  0
VERTEX
  8
LAYER1
 10
10.4028
 20
7.7673
 30
0
 70
     0
  0
VERTEX
  8
LAYER1
 10
10.4028
 20
7.7673
 30
0
 70
     0
  0
VERTEX
  8
LAYER1
 10
10.4072
 20
7.7888
 30
0
 70
     0
  0
VERTEX
  8
LAYER1
 10
10.4191
 20
7.8065
 30
0
 70
     0
  0
VERTEX
  8
LAYER1
 10
10.4368
 20
7.8184
 30
0
 70
     0
  0
VERTEX
  8
LAYER1
 10
10.4583
 20
7.8228
 30
0
 70
     0
  0
SEQEND
  0
LINE
  8
LAYER1
  6
CONTINUOUS
 62
     7
 10
10.4444
 20
8.1145
 30
0
 11
10.6944
 21
8.1145
 31
0
  0
LINE
  8
LAYER1
  6
CONTINUOUS
 62
     7
 10
10.4444
 20
7.7117
 30
0
 11
10.6944
 21
7.7117
 31
0
  0
POLYLINE
  8
LAYER1
  6
CONTINUOUS
 62
     7
 66
     1
 70
     0
 40
0.0039
 41
0.0039
  0
VERTEX
  8
LAYER1
 10
10.25
 20
8.1145
 30
0
 70
     0
  0
VERTEX
  8
LAYER1
 10
10.2715
 20
8.1101
 30
0
 70
     0
  0
VERTEX
  8
LAYER1
 10
10.2892
 20
8.0981
 30
0
 70
     0
  0
VERTEX
  8
LAYER1
 10
10.3012
 20
8.0805
 30
0
 70
     0
  0
VERTEX
  8
LAYER1
 10
10.3056
 20
8.0589
 30
0
 70
     0
  0
VERTEX
  8
LAYER1
 10
10.3056
 20
8.0589
 30
0
 70
     0
  0
VERTEX
  8
LAYER1
 10
10.3012
 20
8.0374
 30
0
 70
     0
  0
VERTEX
  8
LAYER1
 10
10.2892
 20
8.0197
 30
0
 70
     0
  0
VERTEX
  8
LAYER1
 10
10.2715
 20
8.0078
 30
0
 70
     0
  0
VERTEX
  8
LAYER1
 10
10.25
 20
8.0034
 30
0
 70
     0
  0
SEQEND
  0
POLYLINE
  8
LAYER1
  6
CONTINUOUS
 62
     7
 66
     1
 70
     0
 40
0.0039
 41
0.0039
  0
VERTEX
  8
LAYER1
 10
10.25
 20
8.0173
 30
0
 70
     0
  0
VERTEX
  8
LAYER1
 10
10.2715
 20
8.0129
 30
0
 70
     0
  0
VERTEX
  8
LAYER1
 10
10.2892
 20
8.0009
 30
0
 70
     0
  0
VERTEX
  8
LAYER1
 10
10.3012
 20
7.9832
 30
0
 70
     0
  0
VERTEX
  8
LAYER1
 10
10.3056
 20
7.9617
 30
0
 70
     0
  0
VERTEX
  8
LAYER1
 10
10.3056
 20
7.9617
 30
0
 70
     0
  0
VERTEX
  8
LAYER1
 10
10.3012
 20
7.9402
 30
0
 70
     0
  0
VERTEX
  8
LAYER1
 10
10.2892
 20
7.9225
 30
0
 70
     0
  0
VERTEX
  8
LAYER1
 10
10.2715
 20
7.9105
 30
0
 70
     0
  0
VERTEX
  8
LAYER1
 10
10.25
 20
7.9061
 30
0
 70
     0
  0
SEQEND
  0
POLYLINE
  8
LAYER1
  6
CONTINUOUS
 62
     7
 66
     1
 70
     0
 40
0.0039
 41
0.0039
  0
VERTEX
  8
LAYER1
 10
10.25
 20
7.92
 30
0
 70
     0
  0
VERTEX
  8
LAYER1
 10
10.2715
 20
7.9156
 30
0
 70
     0
  0
VERTEX
  8
LAYER1
 10
10.2892
 20
7.9037
 30
0
 70
     0
  0
VERTEX
  8
LAYER1
 10
10.3012
 20
7.886
 30
0
 70
     0
  0
VERTEX
  8
LAYER1
 10
10.3056
 20
7.8645
 30
0
 70
     0
  0
VERTEX
  8
LAYER1
 10
10.3056
 20
7.8645
 30
0
 70
     0
  0
VERTEX
  8
LAYER1
 10
10.3012
 20
7.8429
 30
0
 70
     0
  0
VERTEX
  8
LAYER1
 10
10.2892
 20
7.8253
 30
0
 70
     0
  0
VERTEX
  8
LAYER1
 10
10.2715
 20
7.8133
 30
0
 70
     0
  0
VERTEX
  8
LAYER1
 10
10.25
 20
7.8089
 30
0
 70
     0
  0
SEQEND
  0
POLYLINE
  8
LAYER1
  6
CONTINUOUS
 62
     7
 66
     1
 70
     0
 40
0.0039
 41
0.0039
  0
VERTEX
  8
LAYER1
 10
10.25
 20
7.8228
 30
0
 70
     0
  0
VERTEX
  8
LAYER1
 10
10.2715
 20
7.8184
 30
0
 70
     0
  0
VERTEX
  8
LAYER1
 10
10.2892
 20
7.8065
 30
0
 70
     0
  0
VERTEX
  8
LAYER1
 10
10.3012
 20
7.7888
 30
0
 70
     0
  0
VERTEX
  8
LAYER1
 10
10.3056
 20
7.7673
 30
0
 70
     0
  0
VERTEX
  8
LAYER1
 10
10.3056
 20
7.7673
 30
0
 70
     0
  0
VERTEX
  8
LAYER1
 10
10.3012
 20
7.7457
 30
0
 70
     0
  0
VERTEX
  8
LAYER1
 10
10.2892
 20
7.7281
 30
0
 70
     0
  0
VERTEX
  8
LAYER1
 10
10.2715
 20
7.7161
 30
0
 70
     0
  0
VERTEX
  8
LAYER1
 10
10.25
 20
7.7117
 30
0
 70
     0
  0
SEQEND
  0
LINE
  8
LAYER1
  6
CONTINUOUS
 62
     7
 10
10
 20
8.1145
 30
0
 11
10.25
 21
8.1145
 31
0
  0
ENDBLK
  8
LAYER1
  0
BLOCK
  8
LAYER1
  2
Group57
 70
     0
 10
0
 20
0
 30
0
  0
LINE
  8
LAYER1
  6
CONTINUOUS
 62
     7
 10
10
 20
7.7117
 30
0
 11
10.25
 21
7.7117
 31
0
  0
SOLID
  8
LAYER1
 62
     7
 10
10.3611
 20
6.6561
 30
0
 11
10.3472
 21
6.5589
 31
0
 12
10.2917
 22
6.5867
 32
0
 13
10.3194
 23
6.5728
 33
0
  0
ENDBLK
  8
LAYER1
  0
BLOCK
  8
LAYER1
  2
Group58
 70
     0
 10
0
 20
0
 30
0
  0
LINE
  8
LAYER1
  6
CONTINUOUS
 62
     7
 10
10.1944
 20
6.2811
 30
0
 11
10.3194
 21
6.5728
 31
0
  0
SOLID
  8
LAYER1
 62
     7
 10
10.5139
 20
6.6561
 30
0
 11
10.5
 21
6.5589
 31
0
 12
10.4583
 22
6.5867
 32
0
 13
10.4722
 23
6.5728
 33
0
  0
ENDBLK
  8
LAYER1
  0
BLOCK
  8
LAYER1
  2
Group59
 70
     0
 10
0
 20
0
 30
0
  0
INSERT
  8
LAYER1
  2
Group57
 10
0
 20
0
 30
0
  0
INSERT
  8
LAYER1
  2
Group58
 10
0
 20
0
 30
0
  0
LINE
  8
LAYER1
  6
CONTINUOUS
 62
     7
 10
10.3472
 20
6.2811
 30
0
 11
10.4722
 21
6.5728
 31
0
  0
POLYLINE
  8
LAYER1
  6
CONTINUOUS
 62
     7
 66
     1
 70
     0
 40
0.0039
 41
0.0039
  0
VERTEX
  8
LAYER1
 10
10.4583
 20
6.5589
 30
0
 70
     0
  0
VERTEX
  8
LAYER1
 10
10.4368
 20
6.5633
 30
0
 70
     0
  0
VERTEX
  8
LAYER1
 10
10.4191
 20
6.5753
 30
0
 70
     0
  0
VERTEX
  8
LAYER1
 10
10.4072
 20
6.5929
 30
0
 70
     0
  0
VERTEX
  8
LAYER1
 10
10.4028
 20
6.6145
 30
0
 70
     0
  0
VERTEX
  8
LAYER1
 10
10.4028
 20
6.6145
 30
0
 70
     0
  0
VERTEX
  8
LAYER1
 10
10.4072
 20
6.636
 30
0
 70
     0
  0
VERTEX
  8
LAYER1
 10
10.4191
 20
6.6537
 30
0
 70
     0
  0
VERTEX
  8
LAYER1
 10
10.4368
 20
6.6656
 30
0
 70
     0
  0
VERTEX
  8
LAYER1
 10
10.4583
 20
6.67
 30
0
 70
     0
  0
SEQEND
  0
POLYLINE
  8
LAYER1
  6
CONTINUOUS
 62
     7
 66
     1
 70
     0
 40
0.0039
 41
0.0039
  0
VERTEX
  8
LAYER1
 10
10.4583
 20
6.4617
 30
0
 70
     0
  0
VERTEX
  8
LAYER1
 10
10.4368
 20
6.4661
 30
0
 70
     0
  0
VERTEX
  8
LAYER1
 10
10.4191
 20
6.4781
 30
0
 70
     0
  0
VERTEX
  8
LAYER1
 10
10.4072
 20
6.4957
 30
0
 70
     0
  0
VERTEX
  8
LAYER1
 10
10.4028
 20
6.5173
 30
0
 70
     0
  0
VERTEX
  8
LAYER1
 10
10.4028
 20
6.5173
 30
0
 70
     0
  0
VERTEX
  8
LAYER1
 10
10.4072
 20
6.5388
 30
0
 70
     0
  0
VERTEX
  8
LAYER1
 10
10.4191
 20
6.5565
 30
0
 70
     0
  0
VERTEX
  8
LAYER1
 10
10.4368
 20
6.5684
 30
0
 70
     0
  0
VERTEX
  8
LAYER1
 10
10.4583
 20
6.5728
 30
0
 70
     0
  0
SEQEND
  0
POLYLINE
  8
LAYER1
  6
CONTINUOUS
 62
     7
 66
     1
 70
     0
 40
0.0039
 41
0.0039
  0
VERTEX
  8
LAYER1
 10
10.4583
 20
6.3645
 30
0
 70
     0
  0
VERTEX
  8
LAYER1
 10
10.4368
 20
6.3689
 30
0
 70
     0
  0
VERTEX
  8
LAYER1
 10
10.4191
 20
6.3808
 30
0
 70
     0
  0
VERTEX
  8
LAYER1
 10
10.4072
 20
6.3985
 30
0
 70
     0
  0
VERTEX
  8
LAYER1
 10
10.4028
 20
6.42
 30
0
 70
     0
  0
VERTEX
  8
LAYER1
 10
10.4028
 20
6.42
 30
0
 70
     0
  0
VERTEX
  8
LAYER1
 10
10.4072
 20
6.4416
 30
0
 70
     0
  0
VERTEX
  8
LAYER1
 10
10.4191
 20
6.4592
 30
0
 70
     0
  0
VERTEX
  8
LAYER1
 10
10.4368
 20
6.4712
 30
0
 70
     0
  0
VERTEX
  8
LAYER1
 10
10.4583
 20
6.4756
 30
0
 70
     0
  0
SEQEND
  0
POLYLINE
  8
LAYER1
  6
CONTINUOUS
 62
     7
 66
     1
 70
     0
 40
0.0039
 41
0.0039
  0
VERTEX
  8
LAYER1
 10
10.4583
 20
6.2673
 30
0
 70
     0
  0
VERTEX
  8
LAYER1
 10
10.4368
 20
6.2716
 30
0
 70
     0
  0
VERTEX
  8
LAYER1
 10
10.4191
 20
6.2836
 30
0
 70
     0
  0
VERTEX
  8
LAYER1
 10
10.4072
 20
6.3013
 30
0
 70
     0
  0
VERTEX
  8
LAYER1
 10
10.4028
 20
6.3228
 30
0
 70
     0
  0
VERTEX
  8
LAYER1
 10
10.4028
 20
6.3228
 30
0
 70
     0
  0
VERTEX
  8
LAYER1
 10
10.4072
 20
6.3443
 30
0
 70
     0
  0
VERTEX
  8
LAYER1
 10
10.4191
 20
6.362
 30
0
 70
     0
  0
VERTEX
  8
LAYER1
 10
10.4368
 20
6.374
 30
0
 70
     0
  0
VERTEX
  8
LAYER1
 10
10.4583
 20
6.3784
 30
0
 70
     0
  0
SEQEND
  0
LINE
  8
LAYER1
  6
CONTINUOUS
 62
     7
 10
10.4444
 20
6.67
 30
0
 11
10.6944
 21
6.67
 31
0
  0
LINE
  8
LAYER1
  6
CONTINUOUS
 62
     7
 10
10.4444
 20
6.2673
 30
0
 11
10.6944
 21
6.2673
 31
0
  0
POLYLINE
  8
LAYER1
  6
CONTINUOUS
 62
     7
 66
     1
 70
     0
 40
0.0039
 41
0.0039
  0
VERTEX
  8
LAYER1
 10
10.25
 20
6.67
 30
0
 70
     0
  0
VERTEX
  8
LAYER1
 10
10.2715
 20
6.6656
 30
0
 70
     0
  0
VERTEX
  8
LAYER1
 10
10.2892
 20
6.6537
 30
0
 70
     0
  0
VERTEX
  8
LAYER1
 10
10.3012
 20
6.636
 30
0
 70
     0
  0
VERTEX
  8
LAYER1
 10
10.3056
 20
6.6145
 30
0
 70
     0
  0
VERTEX
  8
LAYER1
 10
10.3056
 20
6.6145
 30
0
 70
     0
  0
VERTEX
  8
LAYER1
 10
10.3012
 20
6.5929
 30
0
 70
     0
  0
VERTEX
  8
LAYER1
 10
10.2892
 20
6.5753
 30
0
 70
     0
  0
VERTEX
  8
LAYER1
 10
10.2715
 20
6.5633
 30
0
 70
     0
  0
VERTEX
  8
LAYER1
 10
10.25
 20
6.5589
 30
0
 70
     0
  0
SEQEND
  0
POLYLINE
  8
LAYER1
  6
CONTINUOUS
 62
     7
 66
     1
 70
     0
 40
0.0039
 41
0.0039
  0
VERTEX
  8
LAYER1
 10
10.25
 20
6.5728
 30
0
 70
     0
  0
VERTEX
  8
LAYER1
 10
10.2715
 20
6.5684
 30
0
 70
     0
  0
VERTEX
  8
LAYER1
 10
10.2892
 20
6.5565
 30
0
 70
     0
  0
VERTEX
  8
LAYER1
 10
10.3012
 20
6.5388
 30
0
 70
     0
  0
VERTEX
  8
LAYER1
 10
10.3056
 20
6.5173
 30
0
 70
     0
  0
VERTEX
  8
LAYER1
 10
10.3056
 20
6.5173
 30
0
 70
     0
  0
VERTEX
  8
LAYER1
 10
10.3012
 20
6.4957
 30
0
 70
     0
  0
VERTEX
  8
LAYER1
 10
10.2892
 20
6.4781
 30
0
 70
     0
  0
VERTEX
  8
LAYER1
 10
10.2715
 20
6.4661
 30
0
 70
     0
  0
VERTEX
  8
LAYER1
 10
10.25
 20
6.4617
 30
0
 70
     0
  0
SEQEND
  0
POLYLINE
  8
LAYER1
  6
CONTINUOUS
 62
     7
 66
     1
 70
     0
 40
0.0039
 41
0.0039
  0
VERTEX
  8
LAYER1
 10
10.25
 20
6.4756
 30
0
 70
     0
  0
VERTEX
  8
LAYER1
 10
10.2715
 20
6.4712
 30
0
 70
     0
  0
VERTEX
  8
LAYER1
 10
10.2892
 20
6.4592
 30
0
 70
     0
  0
VERTEX
  8
LAYER1
 10
10.3012
 20
6.4416
 30
0
 70
     0
  0
VERTEX
  8
LAYER1
 10
10.3056
 20
6.42
 30
0
 70
     0
  0
VERTEX
  8
LAYER1
 10
10.3056
 20
6.42
 30
0
 70
     0
  0
VERTEX
  8
LAYER1
 10
10.3012
 20
6.3985
 30
0
 70
     0
  0
VERTEX
  8
LAYER1
 10
10.2892
 20
6.3808
 30
0
 70
     0
  0
VERTEX
  8
LAYER1
 10
10.2715
 20
6.3689
 30
0
 70
     0
  0
VERTEX
  8
LAYER1
 10
10.25
 20
6.3645
 30
0
 70
     0
  0
SEQEND
  0
POLYLINE
  8
LAYER1
  6
CONTINUOUS
 62
     7
 66
     1
 70
     0
 40
0.0039
 41
0.0039
  0
VERTEX
  8
LAYER1
 10
10.25
 20
6.3784
 30
0
 70
     0
  0
VERTEX
  8
LAYER1
 10
10.2715
 20
6.374
 30
0
 70
     0
  0
VERTEX
  8
LAYER1
 10
10.2892
 20
6.362
 30
0
 70
     0
  0
VERTEX
  8
LAYER1
 10
10.3012
 20
6.3443
 30
0
 70
     0
  0
VERTEX
  8
LAYER1
 10
10.3056
 20
6.3228
 30
0
 70
     0
  0
VERTEX
  8
LAYER1
 10
10.3056
 20
6.3228
 30
0
 70
     0
  0
VERTEX
  8
LAYER1
 10
10.3012
 20
6.3013
 30
0
 70
     0
  0
VERTEX
  8
LAYER1
 10
10.2892
 20
6.2836
 30
0
 70
     0
  0
VERTEX
  8
LAYER1
 10
10.2715
 20
6.2716
 30
0
 70
     0
  0
VERTEX
  8
LAYER1
 10
10.25
 20
6.2673
 30
0
 70
     0
  0
SEQEND
  0
LINE
  8
LAYER1
  6
CONTINUOUS
 62
     7
 10
10
 20
6.67
 30
0
 11
10.25
 21
6.67
 31
0
  0
ENDBLK
  8
LAYER1
  0
BLOCK
  8
LAYER1
  2
Group60
 70
     0
 10
0
 20
0
 30
0
  0
LINE
  8
LAYER1
  6
CONTINUOUS
 62
     7
 10
10
 20
6.2673
 30
0
 11
10.25
 21
6.2673
 31
0
  0
POLYLINE
  8
LAYER1
  6
CONTINUOUS
 62
     7
 66
     1
 70
     0
 40
0.0039
 41
0.0039
  0
VERTEX
  8
LAYER1
 10
10.4583
 20
4.92
 30
0
 70
     0
  0
VERTEX
  8
LAYER1
 10
10.4368
 20
4.9244
 30
0
 70
     0
  0
VERTEX
  8
LAYER1
 10
10.4191
 20
4.9364
 30
0
 70
     0
  0
VERTEX
  8
LAYER1
 10
10.4072
 20
4.9541
 30
0
 70
     0
  0
VERTEX
  8
LAYER1
 10
10.4028
 20
4.9756
 30
0
 70
     0
  0
VERTEX
  8
LAYER1
 10
10.4028
 20
4.9756
 30
0
 70
     0
  0
VERTEX
  8
LAYER1
 10
10.4072
 20
4.9971
 30
0
 70
     0
  0
VERTEX
  8
LAYER1
 10
10.4191
 20
5.0148
 30
0
 70
     0
  0
VERTEX
  8
LAYER1
 10
10.4368
 20
5.0267
 30
0
 70
     0
  0
VERTEX
  8
LAYER1
 10
10.4583
 20
5.0311
 30
0
 70
     0
  0
SEQEND
  0
POLYLINE
  8
LAYER1
  6
CONTINUOUS
 62
     7
 66
     1
 70
     0
 40
0.0039
 41
0.0039
  0
VERTEX
  8
LAYER1
 10
10.4583
 20
4.8228
 30
0
 70
     0
  0
VERTEX
  8
LAYER1
 10
10.4368
 20
4.8272
 30
0
 70
     0
  0
VERTEX
  8
LAYER1
 10
10.4191
 20
4.8392
 30
0
 70
     0
  0
VERTEX
  8
LAYER1
 10
10.4072
 20
4.8568
 30
0
 70
     0
  0
VERTEX
  8
LAYER1
 10
10.4028
 20
4.8784
 30
0
 70
     0
  0
VERTEX
  8
LAYER1
 10
10.4028
 20
4.8784
 30
0
 70
     0
  0
VERTEX
  8
LAYER1
 10
10.4072
 20
4.8999
 30
0
 70
     0
  0
VERTEX
  8
LAYER1
 10
10.4191
 20
4.9176
 30
0
 70
     0
  0
VERTEX
  8
LAYER1
 10
10.4368
 20
4.9295
 30
0
 70
     0
  0
VERTEX
  8
LAYER1
 10
10.4583
 20
4.9339
 30
0
 70
     0
  0
SEQEND
  0
POLYLINE
  8
LAYER1
  6
CONTINUOUS
 62
     7
 66
     1
 70
     0
 40
0.0039
 41
0.0039
  0
VERTEX
  8
LAYER1
 10
10.4583
 20
4.7117
 30
0
 70
     0
  0
VERTEX
  8
LAYER1
 10
10.4368
 20
4.7161
 30
0
 70
     0
  0
VERTEX
  8
LAYER1
 10
10.4191
 20
4.7281
 30
0
 70
     0
  0
VERTEX
  8
LAYER1
 10
10.4072
 20
4.7457
 30
0
 70
     0
  0
VERTEX
  8
LAYER1
 10
10.4028
 20
4.7673
 30
0
 70
     0
  0
VERTEX
  8
LAYER1
 10
10.4028
 20
4.7673
 30
0
 70
     0
  0
VERTEX
  8
LAYER1
 10
10.4072
 20
4.7888
 30
0
 70
     0
  0
VERTEX
  8
LAYER1
 10
10.4191
 20
4.8065
 30
0
 70
     0
  0
VERTEX
  8
LAYER1
 10
10.4368
 20
4.8184
 30
0
 70
     0
  0
VERTEX
  8
LAYER1
 10
10.4583
 20
4.8228
 30
0
 70
     0
  0
SEQEND
  0
POLYLINE
  8
LAYER1
  6
CONTINUOUS
 62
     7
 66
     1
 70
     0
 40
0.0039
 41
0.0039
  0
VERTEX
  8
LAYER1
 10
10.4583
 20
4.6145
 30
0
 70
     0
  0
VERTEX
  8
LAYER1
 10
10.4368
 20
4.6189
 30
0
 70
     0
  0
VERTEX
  8
LAYER1
 10
10.4191
 20
4.6308
 30
0
 70
     0
  0
VERTEX
  8
LAYER1
 10
10.4072
 20
4.6485
 30
0
 70
     0
  0
VERTEX
  8
LAYER1
 10
10.4028
 20
4.67
 30
0
 70
     0
  0
VERTEX
  8
LAYER1
 10
10.4028
 20
4.67
 30
0
 70
     0
  0
VERTEX
  8
LAYER1
 10
10.4072
 20
4.6916
 30
0
 70
     0
  0
VERTEX
  8
LAYER1
 10
10.4191
 20
4.7092
 30
0
 70
     0
  0
VERTEX
  8
LAYER1
 10
10.4368
 20
4.7212
 30
0
 70
     0
  0
VERTEX
  8
LAYER1
 10
10.4583
 20
4.7256
 30
0
 70
     0
  0
SEQEND
  0
LINE
  8
LAYER1
  6
CONTINUOUS
 62
     7
 10
10.4444
 20
5.1284
 30
0
 11
10.6944
 21
5.1284
 31
0
  0
LINE
  8
LAYER1
  6
CONTINUOUS
 62
     7
 10
10.4444
 20
4.6284
 30
0
 11
10.6944
 21
4.6284
 31
0
  0
POLYLINE
  8
LAYER1
  6
CONTINUOUS
 62
     7
 66
     1
 70
     0
 40
0.0039
 41
0.0039
  0
VERTEX
  8
LAYER1
 10
10.25
 20
5.0311
 30
0
 70
     0
  0
VERTEX
  8
LAYER1
 10
10.2715
 20
5.0267
 30
0
 70
     0
  0
VERTEX
  8
LAYER1
 10
10.2892
 20
5.0148
 30
0
 70
     0
  0
VERTEX
  8
LAYER1
 10
10.3012
 20
4.9971
 30
0
 70
     0
  0
VERTEX
  8
LAYER1
 10
10.3056
 20
4.9756
 30
0
 70
     0
  0
VERTEX
  8
LAYER1
 10
10.3056
 20
4.9756
 30
0
 70
     0
  0
VERTEX
  8
LAYER1
 10
10.3012
 20
4.9541
 30
0
 70
     0
  0
VERTEX
  8
LAYER1
 10
10.2892
 20
4.9364
 30
0
 70
     0
  0
VERTEX
  8
LAYER1
 10
10.2715
 20
4.9244
 30
0
 70
     0
  0
VERTEX
  8
LAYER1
 10
10.25
 20
4.92
 30
0
 70
     0
  0
SEQEND
  0
POLYLINE
  8
LAYER1
  6
CONTINUOUS
 62
     7
 66
     1
 70
     0
 40
0.0039
 41
0.0039
  0
VERTEX
  8
LAYER1
 10
10.25
 20
4.9339
 30
0
 70
     0
  0
VERTEX
  8
LAYER1
 10
10.2715
 20
4.9295
 30
0
 70
     0
  0
VERTEX
  8
LAYER1
 10
10.2892
 20
4.9176
 30
0
 70
     0
  0
VERTEX
  8
LAYER1
 10
10.3012
 20
4.8999
 30
0
 70
     0
  0
VERTEX
  8
LAYER1
 10
10.3056
 20
4.8784
 30
0
 70
     0
  0
VERTEX
  8
LAYER1
 10
10.3056
 20
4.8784
 30
0
 70
     0
  0
VERTEX
  8
LAYER1
 10
10.3012
 20
4.8568
 30
0
 70
     0
  0
VERTEX
  8
LAYER1
 10
10.2892
 20
4.8392
 30
0
 70
     0
  0
VERTEX
  8
LAYER1
 10
10.2715
 20
4.8272
 30
0
 70
     0
  0
VERTEX
  8
LAYER1
 10
10.25
 20
4.8228
 30
0
 70
     0
  0
SEQEND
  0
POLYLINE
  8
LAYER1
  6
CONTINUOUS
 62
     7
 66
     1
 70
     0
 40
0.0039
 41
0.0039
  0
VERTEX
  8
LAYER1
 10
10.25
 20
4.8228
 30
0
 70
     0
  0
VERTEX
  8
LAYER1
 10
10.2715
 20
4.8184
 30
0
 70
     0
  0
VERTEX
  8
LAYER1
 10
10.2892
 20
4.8065
 30
0
 70
     0
  0
VERTEX
  8
LAYER1
 10
10.3012
 20
4.7888
 30
0
 70
     0
  0
VERTEX
  8
LAYER1
 10
10.3056
 20
4.7673
 30
0
 70
     0
  0
VERTEX
  8
LAYER1
 10
10.3056
 20
4.7673
 30
0
 70
     0
  0
VERTEX
  8
LAYER1
 10
10.3012
 20
4.7457
 30
0
 70
     0
  0
VERTEX
  8
LAYER1
 10
10.2892
 20
4.7281
 30
0
 70
     0
  0
VERTEX
  8
LAYER1
 10
10.2715
 20
4.7161
 30
0
 70
     0
  0
VERTEX
  8
LAYER1
 10
10.25
 20
4.7117
 30
0
 70
     0
  0
SEQEND
  0
POLYLINE
  8
LAYER1
  6
CONTINUOUS
 62
     7
 66
     1
 70
     0
 40
0.0039
 41
0.0039
  0
VERTEX
  8
LAYER1
 10
10.25
 20
4.7256
 30
0
 70
     0
  0
VERTEX
  8
LAYER1
 10
10.2715
 20
4.7212
 30
0
 70
     0
  0
VERTEX
  8
LAYER1
 10
10.2892
 20
4.7092
 30
0
 70
     0
  0
VERTEX
  8
LAYER1
 10
10.3012
 20
4.6916
 30
0
 70
     0
  0
VERTEX
  8
LAYER1
 10
10.3056
 20
4.67
 30
0
 70
     0
  0
VERTEX
  8
LAYER1
 10
10.3056
 20
4.67
 30
0
 70
     0
  0
VERTEX
  8
LAYER1
 10
10.3012
 20
4.6485
 30
0
 70
     0
  0
VERTEX
  8
LAYER1
 10
10.2892
 20
4.6308
 30
0
 70
     0
  0
VERTEX
  8
LAYER1
 10
10.2715
 20
4.6189
 30
0
 70
     0
  0
VERTEX
  8
LAYER1
 10
10.25
 20
4.6145
 30
0
 70
     0
  0
SEQEND
  0
LINE
  8
LAYER1
  6
CONTINUOUS
 62
     7
 10
10
 20
5.0311
 30
0
 11
10.25
 21
5.0311
 31
0
  0
LINE
  8
LAYER1
  6
CONTINUOUS
 62
     7
 10
10
 20
4.6284
 30
0
 11
10.25
 21
4.6284
 31
0
  0
POLYLINE
  8
LAYER1
  6
CONTINUOUS
 62
     7
 66
     1
 70
     0
 40
0.0039
 41
0.0039
  0
VERTEX
  8
LAYER1
 10
10.4583
 20
5.0173
 30
0
 70
     0
  0
VERTEX
  8
LAYER1
 10
10.4368
 20
5.0216
 30
0
 70
     0
  0
VERTEX
  8
LAYER1
 10
10.4191
 20
5.0336
 30
0
 70
     0
  0
VERTEX
  8
LAYER1
 10
10.4072
 20
5.0513
 30
0
 70
     0
  0
VERTEX
  8
LAYER1
 10
10.4028
 20
5.0728
 30
0
 70
     0
  0
VERTEX
  8
LAYER1
 10
10.4028
 20
5.0728
 30
0
 70
     0
  0
VERTEX
  8
LAYER1
 10
10.4072
 20
5.0943
 30
0
 70
     0
  0
VERTEX
  8
LAYER1
 10
10.4191
 20
5.112
 30
0
 70
     0
  0
VERTEX
  8
LAYER1
 10
10.4368
 20
5.124
 30
0
 70
     0
  0
VERTEX
  8
LAYER1
 10
10.4583
 20
5.1284
 30
0
 70
     0
  0
SEQEND
  0
ENDBLK
  8
LAYER1
  0
BLOCK
  8
LAYER1
  2
Group61
 70
     0
 10
0
 20
0
 30
0
  0
LINE
  8
LAYER1
  6
CONTINUOUS
 62
     7
 10
10.4444
 20
4.9339
 30
0
 11
10.6944
 21
4.9339
 31
0
  0
LINE
  8
LAYER1
  6
CONTINUOUS
 62
     7
 10
10.4167
 20
3.7811
 30
0
 11
10.4167
 21
3.3784
 31
0
  0
LINE
  8
LAYER1
  6
CONTINUOUS
 62
     7
 10
10.375
 20
3.7811
 30
0
 11
10.375
 21
3.3784
 31
0
  0
POLYLINE
  8
LAYER1
  6
CONTINUOUS
 62
     7
 66
     1
 70
     0
 40
0.0039
 41
0.0039
  0
VERTEX
  8
LAYER1
 10
10.5556
 20
3.67
 30
0
 70
     0
  0
VERTEX
  8
LAYER1
 10
10.534
 20
3.6744
 30
0
 70
     0
  0
VERTEX
  8
LAYER1
 10
10.5163
 20
3.6864
 30
0
 70
     0
  0
VERTEX
  8
LAYER1
 10
10.5044
 20
3.7041
 30
0
 70
     0
  0
VERTEX
  8
LAYER1
 10
10.5
 20
3.7256
 30
0
 70
     0
  0
VERTEX
  8
LAYER1
 10
10.5
 20
3.7256
 30
0
 70
     0
  0
VERTEX
  8
LAYER1
 10
10.5044
 20
3.7471
 30
0
 70
     0
  0
VERTEX
  8
LAYER1
 10
10.5164
 20
3.7648
 30
0
 70
     0
  0
VERTEX
  8
LAYER1
 10
10.534
 20
3.7767
 30
0
 70
     0
  0
VERTEX
  8
LAYER1
 10
10.5556
 20
3.7811
 30
0
 70
     0
  0
SEQEND
  0
POLYLINE
  8
LAYER1
  6
CONTINUOUS
 62
     7
 66
     1
 70
     0
 40
0.0039
 41
0.0039
  0
VERTEX
  8
LAYER1
 10
10.5556
 20
3.5728
 30
0
 70
     0
  0
VERTEX
  8
LAYER1
 10
10.534
 20
3.5772
 30
0
 70
     0
  0
VERTEX
  8
LAYER1
 10
10.5163
 20
3.5892
 30
0
 70
     0
  0
VERTEX
  8
LAYER1
 10
10.5044
 20
3.6068
 30
0
 70
     0
  0
VERTEX
  8
LAYER1
 10
10.5
 20
3.6284
 30
0
 70
     0
  0
VERTEX
  8
LAYER1
 10
10.5
 20
3.6284
 30
0
 70
     0
  0
VERTEX
  8
LAYER1
 10
10.5044
 20
3.6499
 30
0
 70
     0
  0
VERTEX
  8
LAYER1
 10
10.5164
 20
3.6676
 30
0
 70
     0
  0
VERTEX
  8
LAYER1
 10
10.534
 20
3.6795
 30
0
 70
     0
  0
VERTEX
  8
LAYER1
 10
10.5556
 20
3.6839
 30
0
 70
     0
  0
SEQEND
  0
POLYLINE
  8
LAYER1
  6
CONTINUOUS
 62
     7
 66
     1
 70
     0
 40
0.0039
 41
0.0039
  0
VERTEX
  8
LAYER1
 10
10.5556
 20
3.4756
 30
0
 70
     0
  0
VERTEX
  8
LAYER1
 10
10.534
 20
3.48
 30
0
 70
     0
  0
VERTEX
  8
LAYER1
 10
10.5163
 20
3.4919
 30
0
 70
     0
  0
VERTEX
  8
LAYER1
 10
10.5044
 20
3.5096
 30
0
 70
     0
  0
VERTEX
  8
LAYER1
 10
10.5
 20
3.5311
 30
0
 70
     0
  0
VERTEX
  8
LAYER1
 10
10.5
 20
3.5311
 30
0
 70
     0
  0
VERTEX
  8
LAYER1
 10
10.5044
 20
3.5527
 30
0
 70
     0
  0
VERTEX
  8
LAYER1
 10
10.5164
 20
3.5703
 30
0
 70
     0
  0
VERTEX
  8
LAYER1
 10
10.534
 20
3.5823
 30
0
 70
     0
  0
VERTEX
  8
LAYER1
 10
10.5556
 20
3.5867
 30
0
 70
     0
  0
SEQEND
  0
POLYLINE
  8
LAYER1
  6
CONTINUOUS
 62
     7
 66
     1
 70
     0
 40
0.0039
 41
0.0039
  0
VERTEX
  8
LAYER1
 10
10.5556
 20
3.3784
 30
0
 70
     0
  0
VERTEX
  8
LAYER1
 10
10.534
 20
3.3828
 30
0
 70
     0
  0
VERTEX
  8
LAYER1
 10
10.5163
 20
3.3947
 30
0
 70
     0
  0
VERTEX
  8
LAYER1
 10
10.5044
 20
3.4124
 30
0
 70
     0
  0
VERTEX
  8
LAYER1
 10
10.5
 20
3.4339
 30
0
 70
     0
  0
VERTEX
  8
LAYER1
 10
10.5
 20
3.4339
 30
0
 70
     0
  0
VERTEX
  8
LAYER1
 10
10.5044
 20
3.4555
 30
0
 70
     0
  0
VERTEX
  8
LAYER1
 10
10.5164
 20
3.4731
 30
0
 70
     0
  0
VERTEX
  8
LAYER1
 10
10.534
 20
3.4851
 30
0
 70
     0
  0
VERTEX
  8
LAYER1
 10
10.5556
 20
3.4895
 30
0
 70
     0
  0
SEQEND
  0
LINE
  8
LAYER1
  6
CONTINUOUS
 62
     7
 10
10.5417
 20
3.7811
 30
0
 11
10.7917
 21
3.7811
 31
0
  0
LINE
  8
LAYER1
  6
CONTINUOUS
 62
     7
 10
10.5417
 20
3.3784
 30
0
 11
10.7917
 21
3.3784
 31
0
  0
POLYLINE
  8
LAYER1
  6
CONTINUOUS
 62
     7
 66
     1
 70
     0
 40
0.0039
 41
0.0039
  0
VERTEX
  8
LAYER1
 10
10.25
 20
3.7811
 30
0
 70
     0
  0
VERTEX
  8
LAYER1
 10
10.2715
 20
3.7767
 30
0
 70
     0
  0
VERTEX
  8
LAYER1
 10
10.2892
 20
3.7648
 30
0
 70
     0
  0
VERTEX
  8
LAYER1
 10
10.3012
 20
3.7471
 30
0
 70
     0
  0
VERTEX
  8
LAYER1
 10
10.3056
 20
3.7256
 30
0
 70
     0
  0
VERTEX
  8
LAYER1
 10
10.3056
 20
3.7256
 30
0
 70
     0
  0
VERTEX
  8
LAYER1
 10
10.3012
 20
3.7041
 30
0
 70
     0
  0
VERTEX
  8
LAYER1
 10
10.2892
 20
3.6864
 30
0
 70
     0
  0
VERTEX
  8
LAYER1
 10
10.2715
 20
3.6744
 30
0
 70
     0
  0
VERTEX
  8
LAYER1
 10
10.25
 20
3.67
 30
0
 70
     0
  0
SEQEND
  0
POLYLINE
  8
LAYER1
  6
CONTINUOUS
 62
     7
 66
     1
 70
     0
 40
0.0039
 41
0.0039
  0
VERTEX
  8
LAYER1
 10
10.25
 20
3.6839
 30
0
 70
     0
  0
VERTEX
  8
LAYER1
 10
10.2715
 20
3.6795
 30
0
 70
     0
  0
VERTEX
  8
LAYER1
 10
10.2892
 20
3.6676
 30
0
 70
     0
  0
VERTEX
  8
LAYER1
 10
10.3012
 20
3.6499
 30
0
 70
     0
  0
VERTEX
  8
LAYER1
 10
10.3056
 20
3.6284
 30
0
 70
     0
  0
VERTEX
  8
LAYER1
 10
10.3056
 20
3.6284
 30
0
 70
     0
  0
VERTEX
  8
LAYER1
 10
10.3012
 20
3.6068
 30
0
 70
     0
  0
VERTEX
  8
LAYER1
 10
10.2892
 20
3.5892
 30
0
 70
     0
  0
VERTEX
  8
LAYER1
 10
10.2715
 20
3.5772
 30
0
 70
     0
  0
VERTEX
  8
LAYER1
 10
10.25
 20
3.5728
 30
0
 70
     0
  0
SEQEND
  0
POLYLINE
  8
LAYER1
  6
CONTINUOUS
 62
     7
 66
     1
 70
     0
 40
0.0039
 41
0.0039
  0
VERTEX
  8
LAYER1
 10
10.25
 20
3.5867
 30
0
 70
     0
  0
VERTEX
  8
LAYER1
 10
10.2715
 20
3.5823
 30
0
 70
     0
  0
VERTEX
  8
LAYER1
 10
10.2892
 20
3.5703
 30
0
 70
     0
  0
VERTEX
  8
LAYER1
 10
10.3012
 20
3.5527
 30
0
 70
     0
  0
VERTEX
  8
LAYER1
 10
10.3056
 20
3.5311
 30
0
 70
     0
  0
VERTEX
  8
LAYER1
 10
10.3056
 20
3.5311
 30
0
 70
     0
  0
VERTEX
  8
LAYER1
 10
10.3012
 20
3.5096
 30
0
 70
     0
  0
VERTEX
  8
LAYER1
 10
10.2892
 20
3.4919
 30
0
 70
     0
  0
VERTEX
  8
LAYER1
 10
10.2715
 20
3.48
 30
0
 70
     0
  0
VERTEX
  8
LAYER1
 10
10.25
 20
3.4756
 30
0
 70
     0
  0
SEQEND
  0
POLYLINE
  8
LAYER1
  6
CONTINUOUS
 62
     7
 66
     1
 70
     0
 40
0.0039
 41
0.0039
  0
VERTEX
  8
LAYER1
 10
10.25
 20
3.4895
 30
0
 70
     0
  0
VERTEX
  8
LAYER1
 10
10.2715
 20
3.4851
 30
0
 70
     0
  0
VERTEX
  8
LAYER1
 10
10.2892
 20
3.4731
 30
0
 70
     0
  0
VERTEX
  8
LAYER1
 10
10.3012
 20
3.4555
 30
0
 70
     0
  0
VERTEX
  8
LAYER1
 10
10.3056
 20
3.4339
 30
0
 70
     0
  0
VERTEX
  8
LAYER1
 10
10.3056
 20
3.4339
 30
0
 70
     0
  0
VERTEX
  8
LAYER1
 10
10.3012
 20
3.4124
 30
0
 70
     0
  0
VERTEX
  8
LAYER1
 10
10.2892
 20
3.3947
 30
0
 70
     0
  0
VERTEX
  8
LAYER1
 10
10.2715
 20
3.3828
 30
0
 70
     0
  0
VERTEX
  8
LAYER1
 10
10.25
 20
3.3784
 30
0
 70
     0
  0
SEQEND
  0
LINE
  8
LAYER1
  6
CONTINUOUS
 62
     7
 10
10
 20
3.7811
 30
0
 11
10.25
 21
3.7811
 31
0
  0
ENDBLK
  8
LAYER1
  0
BLOCK
  8
LAYER1
  2
Group62
 70
     0
 10
0
 20
0
 30
0
  0
LINE
  8
LAYER1
  6
CONTINUOUS
 62
     7
 10
10.1944
 20
2.3367
 30
0
 11
10.25
 21
2.3367
 31
0
  0
LINE
  8
LAYER1
  6
CONTINUOUS
 62
     7
 10
10.3194
 20
2.3367
 30
0
 11
10.375
 21
2.3367
 31
0
  0
LINE
  8
LAYER1
  6
CONTINUOUS
 62
     7
 10
10.4444
 20
2.3367
 30
0
 11
10.5
 21
2.3367
 31
0
  0
ENDBLK
  8
LAYER1
  0
BLOCK
  8
LAYER1
  2
Group63
 70
     0
 10
0
 20
0
 30
0
  0
LINE
  8
LAYER1
  6
CONTINUOUS
 62
     7
 10
10.5972
 20
2.3367
 30
0
 11
10.5972
 21
2.2811
 31
0
  0
LINE
  8
LAYER1
  6
CONTINUOUS
 62
     7
 10
10.5972
 20
2.2117
 30
0
 11
10.5972
 21
2.1561
 31
0
  0
LINE
  8
LAYER1
  6
CONTINUOUS
 62
     7
 10
10.5972
 20
2.0867
 30
0
 11
10.5972
 21
2.0311
 31
0
  0
LINE
  8
LAYER1
  6
CONTINUOUS
 62
     7
 10
10.5972
 20
1.9617
 30
0
 11
10.5972
 21
1.9061
 31
0
  0
ENDBLK
  8
LAYER1
  0
BLOCK
  8
LAYER1
  2
Group64
 70
     0
 10
0
 20
0
 30
0
  0
LINE
  8
LAYER1
  6
CONTINUOUS
 62
     7
 10
10.5833
 20
1.795
 30
0
 11
10.5278
 21
1.795
 31
0
  0
LINE
  8
LAYER1
  6
CONTINUOUS
 62
     7
 10
10.4583
 20
1.795
 30
0
 11
10.4028
 21
1.795
 31
0
  0
LINE
  8
LAYER1
  6
CONTINUOUS
 62
     7
 10
10.3333
 20
1.795
 30
0
 11
10.2778
 21
1.795
 31
0
  0
ENDBLK
  8
LAYER1
  0
BLOCK
  8
LAYER1
  2
Group65
 70
     0
 10
0
 20
0
 30
0
  0
LINE
  8
LAYER1
  6
CONTINUOUS
 62
     7
 10
10.1944
 20
2.3367
 30
0
 11
10.1944
 21
2.2811
 31
0
  0
LINE
  8
LAYER1
  6
CONTINUOUS
 62
     7
 10
10.1944
 20
2.2117
 30
0
 11
10.1944
 21
2.1561
 31
0
  0
LINE
  8
LAYER1
  6
CONTINUOUS
 62
     7
 10
10.1944
 20
2.0867
 30
0
 11
10.1944
 21
2.0311
 31
0
  0
LINE
  8
LAYER1
  6
CONTINUOUS
 62
     7
 10
10.1944
 20
1.9617
 30
0
 11
10.1944
 21
1.9061
 31
0
  0
ENDBLK
  8
LAYER1
  0
BLOCK
  8
LAYER1
  2
Group66
 70
     0
 10
0
 20
0
 30
0
  0
LINE
  8
LAYER1
  6
CONTINUOUS
 62
     7
 10
10
 20
3.3784
 30
0
 11
10.25
 21
3.3784
 31
0
  0
LINE
  8
LAYER1
  6
CONTINUOUS
 62
     7
 10
10.4167
 20
2.2673
 30
0
 11
10.4167
 21
1.8645
 31
0
  0
LINE
  8
LAYER1
  6
CONTINUOUS
 62
     7
 10
10.375
 20
2.2673
 30
0
 11
10.375
 21
1.8645
 31
0
  0
POLYLINE
  8
LAYER1
  6
CONTINUOUS
 62
     7
 66
     1
 70
     0
 40
0.0039
 41
0.0039
  0
VERTEX
  8
LAYER1
 10
10.5556
 20
2.1561
 30
0
 70
     0
  0
VERTEX
  8
LAYER1
 10
10.534
 20
2.1605
 30
0
 70
     0
  0
VERTEX
  8
LAYER1
 10
10.5163
 20
2.1725
 30
0
 70
     0
  0
VERTEX
  8
LAYER1
 10
10.5044
 20
2.1902
 30
0
 70
     0
  0
VERTEX
  8
LAYER1
 10
10.5
 20
2.2117
 30
0
 70
     0
  0
VERTEX
  8
LAYER1
 10
10.5
 20
2.2117
 30
0
 70
     0
  0
VERTEX
  8
LAYER1
 10
10.5044
 20
2.2332
 30
0
 70
     0
  0
VERTEX
  8
LAYER1
 10
10.5164
 20
2.2509
 30
0
 70
     0
  0
VERTEX
  8
LAYER1
 10
10.534
 20
2.2629
 30
0
 70
     0
  0
VERTEX
  8
LAYER1
 10
10.5556
 20
2.2673
 30
0
 70
     0
  0
SEQEND
  0
POLYLINE
  8
LAYER1
  6
CONTINUOUS
 62
     7
 66
     1
 70
     0
 40
0.0039
 41
0.0039
  0
VERTEX
  8
LAYER1
 10
10.5556
 20
2.0589
 30
0
 70
     0
  0
VERTEX
  8
LAYER1
 10
10.534
 20
2.0633
 30
0
 70
     0
  0
VERTEX
  8
LAYER1
 10
10.5163
 20
2.0753
 30
0
 70
     0
  0
VERTEX
  8
LAYER1
 10
10.5044
 20
2.0929
 30
0
 70
     0
  0
VERTEX
  8
LAYER1
 10
10.5
 20
2.1145
 30
0
 70
     0
  0
VERTEX
  8
LAYER1
 10
10.5
 20
2.1145
 30
0
 70
     0
  0
VERTEX
  8
LAYER1
 10
10.5044
 20
2.136
 30
0
 70
     0
  0
VERTEX
  8
LAYER1
 10
10.5164
 20
2.1537
 30
0
 70
     0
  0
VERTEX
  8
LAYER1
 10
10.534
 20
2.1656
 30
0
 70
     0
  0
VERTEX
  8
LAYER1
 10
10.5556
 20
2.17
 30
0
 70
     0
  0
SEQEND
  0
POLYLINE
  8
LAYER1
  6
CONTINUOUS
 62
     7
 66
     1
 70
     0
 40
0.0039
 41
0.0039
  0
VERTEX
  8
LAYER1
 10
10.5556
 20
1.9478
 30
0
 70
     0
  0
VERTEX
  8
LAYER1
 10
10.534
 20
1.9522
 30
0
 70
     0
  0
VERTEX
  8
LAYER1
 10
10.5163
 20
1.9642
 30
0
 70
     0
  0
VERTEX
  8
LAYER1
 10
10.5044
 20
1.9818
 30
0
 70
     0
  0
VERTEX
  8
LAYER1
 10
10.5
 20
2.0034
 30
0
 70
     0
  0
VERTEX
  8
LAYER1
 10
10.5
 20
2.0034
 30
0
 70
     0
  0
VERTEX
  8
LAYER1
 10
10.5044
 20
2.0249
 30
0
 70
     0
  0
VERTEX
  8
LAYER1
 10
10.5164
 20
2.0426
 30
0
 70
     0
  0
VERTEX
  8
LAYER1
 10
10.534
 20
2.0545
 30
0
 70
     0
  0
VERTEX
  8
LAYER1
 10
10.5556
 20
2.0589
 30
0
 70
     0
  0
SEQEND
  0
POLYLINE
  8
LAYER1
  6
CONTINUOUS
 62
     7
 66
     1
 70
     0
 40
0.0039
 41
0.0039
  0
VERTEX
  8
LAYER1
 10
10.5556
 20
1.8506
 30
0
 70
     0
  0
VERTEX
  8
LAYER1
 10
10.534
 20
1.855
 30
0
 70
     0
  0
VERTEX
  8
LAYER1
 10
10.5163
 20
1.8669
 30
0
 70
     0
  0
VERTEX
  8
LAYER1
 10
10.5044
 20
1.8846
 30
0
 70
     0
  0
VERTEX
  8
LAYER1
 10
10.5
 20
1.9061
 30
0
 70
     0
  0
VERTEX
  8
LAYER1
 10
10.5
 20
1.9061
 30
0
 70
     0
  0
VERTEX
  8
LAYER1
 10
10.5044
 20
1.9277
 30
0
 70
     0
  0
VERTEX
  8
LAYER1
 10
10.5164
 20
1.9453
 30
0
 70
     0
  0
VERTEX
  8
LAYER1
 10
10.534
 20
1.9573
 30
0
 70
     0
  0
VERTEX
  8
LAYER1
 10
10.5556
 20
1.9617
 30
0
 70
     0
  0
SEQEND
  0
LINE
  8
LAYER1
  6
CONTINUOUS
 62
     7
 10
10.5417
 20
2.2673
 30
0
 11
10.7917
 21
2.2673
 31
0
  0
LINE
  8
LAYER1
  6
CONTINUOUS
 62
     7
 10
10.5417
 20
1.8645
 30
0
 11
10.7917
 21
1.8645
 31
0
  0
POLYLINE
  8
LAYER1
  6
CONTINUOUS
 62
     7
 66
     1
 70
     0
 40
0.0039
 41
0.0039
  0
VERTEX
  8
LAYER1
 10
10.25
 20
2.2673
 30
0
 70
     0
  0
VERTEX
  8
LAYER1
 10
10.2715
 20
2.2629
 30
0
 70
     0
  0
VERTEX
  8
LAYER1
 10
10.2892
 20
2.2509
 30
0
 70
     0
  0
VERTEX
  8
LAYER1
 10
10.3012
 20
2.2332
 30
0
 70
     0
  0
VERTEX
  8
LAYER1
 10
10.3056
 20
2.2117
 30
0
 70
     0
  0
VERTEX
  8
LAYER1
 10
10.3056
 20
2.2117
 30
0
 70
     0
  0
VERTEX
  8
LAYER1
 10
10.3012
 20
2.1902
 30
0
 70
     0
  0
VERTEX
  8
LAYER1
 10
10.2892
 20
2.1725
 30
0
 70
     0
  0
VERTEX
  8
LAYER1
 10
10.2715
 20
2.1605
 30
0
 70
     0
  0
VERTEX
  8
LAYER1
 10
10.25
 20
2.1561
 30
0
 70
     0
  0
SEQEND
  0
POLYLINE
  8
LAYER1
  6
CONTINUOUS
 62
     7
 66
     1
 70
     0
 40
0.0039
 41
0.0039
  0
VERTEX
  8
LAYER1
 10
10.25
 20
2.17
 30
0
 70
     0
  0
VERTEX
  8
LAYER1
 10
10.2715
 20
2.1656
 30
0
 70
     0
  0
VERTEX
  8
LAYER1
 10
10.2892
 20
2.1537
 30
0
 70
     0
  0
VERTEX
  8
LAYER1
 10
10.3012
 20
2.136
 30
0
 70
     0
  0
VERTEX
  8
LAYER1
 10
10.3056
 20
2.1145
 30
0
 70
     0
  0
VERTEX
  8
LAYER1
 10
10.3056
 20
2.1145
 30
0
 70
     0
  0
VERTEX
  8
LAYER1
 10
10.3012
 20
2.0929
 30
0
 70
     0
  0
VERTEX
  8
LAYER1
 10
10.2892
 20
2.0753
 30
0
 70
     0
  0
VERTEX
  8
LAYER1
 10
10.2715
 20
2.0633
 30
0
 70
     0
  0
VERTEX
  8
LAYER1
 10
10.25
 20
2.0589
 30
0
 70
     0
  0
SEQEND
  0
POLYLINE
  8
LAYER1
  6
CONTINUOUS
 62
     7
 66
     1
 70
     0
 40
0.0039
 41
0.0039
  0
VERTEX
  8
LAYER1
 10
10.25
 20
2.0589
 30
0
 70
     0
  0
VERTEX
  8
LAYER1
 10
10.2715
 20
2.0545
 30
0
 70
     0
  0
VERTEX
  8
LAYER1
 10
10.2892
 20
2.0426
 30
0
 70
     0
  0
VERTEX
  8
LAYER1
 10
10.3012
 20
2.0249
 30
0
 70
     0
  0
VERTEX
  8
LAYER1
 10
10.3056
 20
2.0034
 30
0
 70
     0
  0
VERTEX
  8
LAYER1
 10
10.3056
 20
2.0034
 30
0
 70
     0
  0
VERTEX
  8
LAYER1
 10
10.3012
 20
1.9818
 30
0
 70
     0
  0
VERTEX
  8
LAYER1
 10
10.2892
 20
1.9642
 30
0
 70
     0
  0
VERTEX
  8
LAYER1
 10
10.2715
 20
1.9522
 30
0
 70
     0
  0
VERTEX
  8
LAYER1
 10
10.25
 20
1.9478
 30
0
 70
     0
  0
SEQEND
  0
POLYLINE
  8
LAYER1
  6
CONTINUOUS
 62
     7
 66
     1
 70
     0
 40
0.0039
 41
0.0039
  0
VERTEX
  8
LAYER1
 10
10.25
 20
1.9617
 30
0
 70
     0
  0
VERTEX
  8
LAYER1
 10
10.2715
 20
1.9573
 30
0
 70
     0
  0
VERTEX
  8
LAYER1
 10
10.2892
 20
1.9453
 30
0
 70
     0
  0
VERTEX
  8
LAYER1
 10
10.3012
 20
1.9277
 30
0
 70
     0
  0
VERTEX
  8
LAYER1
 10
10.3056
 20
1.9061
 30
0
 70
     0
  0
VERTEX
  8
LAYER1
 10
10.3056
 20
1.9061
 30
0
 70
     0
  0
VERTEX
  8
LAYER1
 10
10.3012
 20
1.8846
 30
0
 70
     0
  0
VERTEX
  8
LAYER1
 10
10.2892
 20
1.8669
 30
0
 70
     0
  0
VERTEX
  8
LAYER1
 10
10.2715
 20
1.855
 30
0
 70
     0
  0
VERTEX
  8
LAYER1
 10
10.25
 20
1.8506
 30
0
 70
     0
  0
SEQEND
  0
LINE
  8
LAYER1
  6
CONTINUOUS
 62
     7
 10
10
 20
2.2673
 30
0
 11
10.25
 21
2.2673
 31
0
  0
LINE
  8
LAYER1
  6
CONTINUOUS
 62
     7
 10
10
 20
1.8645
 30
0
 11
10.25
 21
1.8645
 31
0
  0
LINE
  8
LAYER1
  6
DASH2
 62
     7
 10
10.1944
 20
2.3367
 30
0
 11
10.5972
 21
2.3367
 31
0
  0
INSERT
  8
LAYER1
  2
Group62
 10
0
 20
0
 30
0
  0
LINE
  8
LAYER1
  6
CONTINUOUS
 62
     7
 10
10.5694
 20
2.3367
 30
0
 11
10.5833
 21
2.3367
 31
0
  0
LINE
  8
LAYER1
  6
DASH2
 62
     7
 10
10.5972
 20
2.3367
 30
0
 11
10.5972
 21
1.795
 31
0
  0
INSERT
  8
LAYER1
  2
Group63
 10
0
 20
0
 30
0
  0
LINE
  8
LAYER1
  6
CONTINUOUS
 62
     7
 10
10.5972
 20
1.8367
 30
0
 11
10.5972
 21
1.8089
 31
0
  0
LINE
  8
LAYER1
  6
DASH2
 62
     7
 10
10.5972
 20
1.795
 30
0
 11
10.1944
 21
1.795
 31
0
  0
INSERT
  8
LAYER1
  2
Group64
 10
0
 20
0
 30
0
  0
LINE
  8
LAYER1
  6
CONTINUOUS
 62
     7
 10
10.2083
 20
1.795
 30
0
 11
10.1944
 21
1.795
 31
0
  0
LINE
  8
LAYER1
  6
DASH2
 62
     7
 10
10.1944
 20
2.3367
 30
0
 11
10.1944
 21
1.795
 31
0
  0
INSERT
  8
LAYER1
  2
Group65
 10
0
 20
0
 30
0
  0
ENDBLK
  8
LAYER1
  0
BLOCK
  8
LAYER1
  2
Group67
 70
     0
 10
0
 20
0
 30
0
  0
LINE
  8
LAYER1
  6
CONTINUOUS
 62
     7
 10
10.1944
 20
1.8367
 30
0
 11
10.1944
 21
1.8089
 31
0
  0
POLYLINE
  8
LAYER1
  6
CONTINUOUS
 62
     7
 66
     1
 70
     0
 40
0.0039
 41
0.0039
  0
VERTEX
  8
LAYER1
 10
12.6111
 20
9.4478
 30
0
 70
     0
  0
VERTEX
  8
LAYER1
 10
12.5896
 20
9.4522
 30
0
 70
     0
  0
VERTEX
  8
LAYER1
 10
12.5719
 20
9.4642
 30
0
 70
     0
  0
VERTEX
  8
LAYER1
 10
12.5599
 20
9.4818
 30
0
 70
     0
  0
VERTEX
  8
LAYER1
 10
12.5556
 20
9.5034
 30
0
 70
     0
  0
VERTEX
  8
LAYER1
 10
12.5556
 20
9.5034
 30
0
 70
     0
  0
VERTEX
  8
LAYER1
 10
12.5599
 20
9.5249
 30
0
 70
     0
  0
VERTEX
  8
LAYER1
 10
12.5719
 20
9.5426
 30
0
 70
     0
  0
VERTEX
  8
LAYER1
 10
12.5896
 20
9.5545
 30
0
 70
     0
  0
VERTEX
  8
LAYER1
 10
12.6111
 20
9.5589
 30
0
 70
     0
  0
SEQEND
  0
POLYLINE
  8
LAYER1
  6
CONTINUOUS
 62
     7
 66
     1
 70
     0
 40
0.0039
 41
0.0039
  0
VERTEX
  8
LAYER1
 10
12.6111
 20
9.3506
 30
0
 70
     0
  0
VERTEX
  8
LAYER1
 10
12.5896
 20
9.355
 30
0
 70
     0
  0
VERTEX
  8
LAYER1
 10
12.5719
 20
9.3669
 30
0
 70
     0
  0
VERTEX
  8
LAYER1
 10
12.5599
 20
9.3846
 30
0
 70
     0
  0
VERTEX
  8
LAYER1
 10
12.5556
 20
9.4061
 30
0
 70
     0
  0
VERTEX
  8
LAYER1
 10
12.5556
 20
9.4061
 30
0
 70
     0
  0
VERTEX
  8
LAYER1
 10
12.5599
 20
9.4277
 30
0
 70
     0
  0
VERTEX
  8
LAYER1
 10
12.5719
 20
9.4453
 30
0
 70
     0
  0
VERTEX
  8
LAYER1
 10
12.5896
 20
9.4573
 30
0
 70
     0
  0
VERTEX
  8
LAYER1
 10
12.6111
 20
9.4617
 30
0
 70
     0
  0
SEQEND
  0
POLYLINE
  8
LAYER1
  6
CONTINUOUS
 62
     7
 66
     1
 70
     0
 40
0.0039
 41
0.0039
  0
VERTEX
  8
LAYER1
 10
12.6111
 20
9.2534
 30
0
 70
     0
  0
VERTEX
  8
LAYER1
 10
12.5896
 20
9.2578
 30
0
 70
     0
  0
VERTEX
  8
LAYER1
 10
12.5719
 20
9.2697
 30
0
 70
     0
  0
VERTEX
  8
LAYER1
 10
12.5599
 20
9.2874
 30
0
 70
     0
  0
VERTEX
  8
LAYER1
 10
12.5556
 20
9.3089
 30
0
 70
     0
  0
VERTEX
  8
LAYER1
 10
12.5556
 20
9.3089
 30
0
 70
     0
  0
VERTEX
  8
LAYER1
 10
12.5599
 20
9.3305
 30
0
 70
     0
  0
VERTEX
  8
LAYER1
 10
12.5719
 20
9.3481
 30
0
 70
     0
  0
VERTEX
  8
LAYER1
 10
12.5896
 20
9.3601
 30
0
 70
     0
  0
VERTEX
  8
LAYER1
 10
12.6111
 20
9.3645
 30
0
 70
     0
  0
SEQEND
  0
POLYLINE
  8
LAYER1
  6
CONTINUOUS
 62
     7
 66
     1
 70
     0
 40
0.0039
 41
0.0039
  0
VERTEX
  8
LAYER1
 10
12.6111
 20
9.1423
 30
0
 70
     0
  0
VERTEX
  8
LAYER1
 10
12.5896
 20
9.1466
 30
0
 70
     0
  0
VERTEX
  8
LAYER1
 10
12.5719
 20
9.1586
 30
0
 70
     0
  0
VERTEX
  8
LAYER1
 10
12.5599
 20
9.1763
 30
0
 70
     0
  0
VERTEX
  8
LAYER1
 10
12.5556
 20
9.1978
 30
0
 70
     0
  0
VERTEX
  8
LAYER1
 10
12.5556
 20
9.1978
 30
0
 70
     0
  0
VERTEX
  8
LAYER1
 10
12.5599
 20
9.2193
 30
0
 70
     0
  0
VERTEX
  8
LAYER1
 10
12.5719
 20
9.237
 30
0
 70
     0
  0
VERTEX
  8
LAYER1
 10
12.5896
 20
9.249
 30
0
 70
     0
  0
VERTEX
  8
LAYER1
 10
12.6111
 20
9.2534
 30
0
 70
     0
  0
SEQEND
  0
LINE
  8
LAYER1
  6
CONTINUOUS
 62
     7
 10
12.6111
 20
9.5589
 30
0
 11
12.8611
 21
9.5589
 31
0
  0
ENDBLK
  8
LAYER1
  0
BLOCK
  8
LAYER1
  2
Group68
 70
     0
 10
0
 20
0
 30
0
  0
LINE
  8
LAYER1
  6
CONTINUOUS
 62
     7
 10
12.6111
 20
9.1561
 30
0
 11
12.8611
 21
9.1561
 31
0
  0
SOLID
  8
LAYER1
 62
     7
 10
12.6806
 20
8.1145
 30
0
 11
12.6667
 21
8.0034
 31
0
 12
12.6111
 22
8.0311
 32
0
 13
12.6389
 23
8.0173
 33
0
  0
ENDBLK
  8
LAYER1
  0
BLOCK
  8
LAYER1
  2
Group69
 70
     0
 10
0
 20
0
 30
0
  0
INSERT
  8
LAYER1
  2
Group68
 10
0
 20
0
 30
0
  0
LINE
  8
LAYER1
  6
CONTINUOUS
 62
     7
 10
12.5139
 20
7.7256
 30
0
 11
12.6389
 21
8.0173
 31
0
  0
POLYLINE
  8
LAYER1
  6
CONTINUOUS
 62
     7
 66
     1
 70
     0
 40
0.0039
 41
0.0039
  0
VERTEX
  8
LAYER1
 10
12.6111
 20
8.0034
 30
0
 70
     0
  0
VERTEX
  8
LAYER1
 10
12.5896
 20
8.0078
 30
0
 70
     0
  0
VERTEX
  8
LAYER1
 10
12.5719
 20
8.0197
 30
0
 70
     0
  0
VERTEX
  8
LAYER1
 10
12.5599
 20
8.0374
 30
0
 70
     0
  0
VERTEX
  8
LAYER1
 10
12.5556
 20
8.0589
 30
0
 70
     0
  0
VERTEX
  8
LAYER1
 10
12.5556
 20
8.0589
 30
0
 70
     0
  0
VERTEX
  8
LAYER1
 10
12.5599
 20
8.0805
 30
0
 70
     0
  0
VERTEX
  8
LAYER1
 10
12.5719
 20
8.0981
 30
0
 70
     0
  0
VERTEX
  8
LAYER1
 10
12.5896
 20
8.1101
 30
0
 70
     0
  0
VERTEX
  8
LAYER1
 10
12.6111
 20
8.1145
 30
0
 70
     0
  0
SEQEND
  0
POLYLINE
  8
LAYER1
  6
CONTINUOUS
 62
     7
 66
     1
 70
     0
 40
0.0039
 41
0.0039
  0
VERTEX
  8
LAYER1
 10
12.6111
 20
7.9061
 30
0
 70
     0
  0
VERTEX
  8
LAYER1
 10
12.5896
 20
7.9105
 30
0
 70
     0
  0
VERTEX
  8
LAYER1
 10
12.5719
 20
7.9225
 30
0
 70
     0
  0
VERTEX
  8
LAYER1
 10
12.5599
 20
7.9402
 30
0
 70
     0
  0
VERTEX
  8
LAYER1
 10
12.5556
 20
7.9617
 30
0
 70
     0
  0
VERTEX
  8
LAYER1
 10
12.5556
 20
7.9617
 30
0
 70
     0
  0
VERTEX
  8
LAYER1
 10
12.5599
 20
7.9832
 30
0
 70
     0
  0
VERTEX
  8
LAYER1
 10
12.5719
 20
8.0009
 30
0
 70
     0
  0
VERTEX
  8
LAYER1
 10
12.5896
 20
8.0129
 30
0
 70
     0
  0
VERTEX
  8
LAYER1
 10
12.6111
 20
8.0173
 30
0
 70
     0
  0
SEQEND
  0
POLYLINE
  8
LAYER1
  6
CONTINUOUS
 62
     7
 66
     1
 70
     0
 40
0.0039
 41
0.0039
  0
VERTEX
  8
LAYER1
 10
12.6111
 20
7.8089
 30
0
 70
     0
  0
VERTEX
  8
LAYER1
 10
12.5896
 20
7.8133
 30
0
 70
     0
  0
VERTEX
  8
LAYER1
 10
12.5719
 20
7.8253
 30
0
 70
     0
  0
VERTEX
  8
LAYER1
 10
12.5599
 20
7.8429
 30
0
 70
     0
  0
VERTEX
  8
LAYER1
 10
12.5556
 20
7.8645
 30
0
 70
     0
  0
VERTEX
  8
LAYER1
 10
12.5556
 20
7.8645
 30
0
 70
     0
  0
VERTEX
  8
LAYER1
 10
12.5599
 20
7.886
 30
0
 70
     0
  0
VERTEX
  8
LAYER1
 10
12.5719
 20
7.9037
 30
0
 70
     0
  0
VERTEX
  8
LAYER1
 10
12.5896
 20
7.9156
 30
0
 70
     0
  0
VERTEX
  8
LAYER1
 10
12.6111
 20
7.92
 30
0
 70
     0
  0
SEQEND
  0
POLYLINE
  8
LAYER1
  6
CONTINUOUS
 62
     7
 66
     1
 70
     0
 40
0.0039
 41
0.0039
  0
VERTEX
  8
LAYER1
 10
12.6111
 20
7.7117
 30
0
 70
     0
  0
VERTEX
  8
LAYER1
 10
12.5896
 20
7.7161
 30
0
 70
     0
  0
VERTEX
  8
LAYER1
 10
12.5719
 20
7.7281
 30
0
 70
     0
  0
VERTEX
  8
LAYER1
 10
12.5599
 20
7.7457
 30
0
 70
     0
  0
VERTEX
  8
LAYER1
 10
12.5556
 20
7.7673
 30
0
 70
     0
  0
VERTEX
  8
LAYER1
 10
12.5556
 20
7.7673
 30
0
 70
     0
  0
VERTEX
  8
LAYER1
 10
12.5599
 20
7.7888
 30
0
 70
     0
  0
VERTEX
  8
LAYER1
 10
12.5719
 20
7.8065
 30
0
 70
     0
  0
VERTEX
  8
LAYER1
 10
12.5896
 20
7.8184
 30
0
 70
     0
  0
VERTEX
  8
LAYER1
 10
12.6111
 20
7.8228
 30
0
 70
     0
  0
SEQEND
  0
LINE
  8
LAYER1
  6
CONTINUOUS
 62
     7
 10
12.6111
 20
8.1145
 30
0
 11
12.8611
 21
8.1145
 31
0
  0
ENDBLK
  8
LAYER1
  0
BLOCK
  8
LAYER1
  2
Group70
 70
     0
 10
0
 20
0
 30
0
  0
INSERT
  8
LAYER1
  2
Group69
 10
0
 20
0
 30
0
  0
ENDBLK
  8
LAYER1
  0
BLOCK
  8
LAYER1
  2
Group71
 70
     0
 10
0
 20
0
 30
0
  0
LINE
  8
LAYER1
  6
CONTINUOUS
 62
     7
 10
12.6111
 20
7.7256
 30
0
 11
12.8611
 21
7.7256
 31
0
  0
POLYLINE
  8
LAYER1
  6
CONTINUOUS
 62
     7
 66
     1
 70
     0
 40
0.0039
 41
0.0039
  0
VERTEX
  8
LAYER1
 10
12.6111
 20
6.4756
 30
0
 70
     0
  0
VERTEX
  8
LAYER1
 10
12.5896
 20
6.48
 30
0
 70
     0
  0
VERTEX
  8
LAYER1
 10
12.5719
 20
6.4919
 30
0
 70
     0
  0
VERTEX
  8
LAYER1
 10
12.5599
 20
6.5096
 30
0
 70
     0
  0
VERTEX
  8
LAYER1
 10
12.5556
 20
6.5311
 30
0
 70
     0
  0
VERTEX
  8
LAYER1
 10
12.5556
 20
6.5311
 30
0
 70
     0
  0
VERTEX
  8
LAYER1
 10
12.5599
 20
6.5527
 30
0
 70
     0
  0
VERTEX
  8
LAYER1
 10
12.5719
 20
6.5703
 30
0
 70
     0
  0
VERTEX
  8
LAYER1
 10
12.5896
 20
6.5823
 30
0
 70
     0
  0
VERTEX
  8
LAYER1
 10
12.6111
 20
6.5867
 30
0
 70
     0
  0
SEQEND
  0
POLYLINE
  8
LAYER1
  6
CONTINUOUS
 62
     7
 66
     1
 70
     0
 40
0.0039
 41
0.0039
  0
VERTEX
  8
LAYER1
 10
12.6111
 20
6.3645
 30
0
 70
     0
  0
VERTEX
  8
LAYER1
 10
12.5896
 20
6.3689
 30
0
 70
     0
  0
VERTEX
  8
LAYER1
 10
12.5719
 20
6.3808
 30
0
 70
     0
  0
VERTEX
  8
LAYER1
 10
12.5599
 20
6.3985
 30
0
 70
     0
  0
VERTEX
  8
LAYER1
 10
12.5556
 20
6.42
 30
0
 70
     0
  0
VERTEX
  8
LAYER1
 10
12.5556
 20
6.42
 30
0
 70
     0
  0
VERTEX
  8
LAYER1
 10
12.5599
 20
6.4416
 30
0
 70
     0
  0
VERTEX
  8
LAYER1
 10
12.5719
 20
6.4592
 30
0
 70
     0
  0
VERTEX
  8
LAYER1
 10
12.5896
 20
6.4712
 30
0
 70
     0
  0
VERTEX
  8
LAYER1
 10
12.6111
 20
6.4756
 30
0
 70
     0
  0
SEQEND
  0
POLYLINE
  8
LAYER1
  6
CONTINUOUS
 62
     7
 66
     1
 70
     0
 40
0.0039
 41
0.0039
  0
VERTEX
  8
LAYER1
 10
12.6111
 20
6.2673
 30
0
 70
     0
  0
VERTEX
  8
LAYER1
 10
12.5896
 20
6.2716
 30
0
 70
     0
  0
VERTEX
  8
LAYER1
 10
12.5719
 20
6.2836
 30
0
 70
     0
  0
VERTEX
  8
LAYER1
 10
12.5599
 20
6.3013
 30
0
 70
     0
  0
VERTEX
  8
LAYER1
 10
12.5556
 20
6.3228
 30
0
 70
     0
  0
VERTEX
  8
LAYER1
 10
12.5556
 20
6.3228
 30
0
 70
     0
  0
VERTEX
  8
LAYER1
 10
12.5599
 20
6.3443
 30
0
 70
     0
  0
VERTEX
  8
LAYER1
 10
12.5719
 20
6.362
 30
0
 70
     0
  0
VERTEX
  8
LAYER1
 10
12.5896
 20
6.374
 30
0
 70
     0
  0
VERTEX
  8
LAYER1
 10
12.6111
 20
6.3784
 30
0
 70
     0
  0
SEQEND
  0
POLYLINE
  8
LAYER1
  6
CONTINUOUS
 62
     7
 66
     1
 70
     0
 40
0.0039
 41
0.0039
  0
VERTEX
  8
LAYER1
 10
12.6111
 20
6.17
 30
0
 70
     0
  0
VERTEX
  8
LAYER1
 10
12.5896
 20
6.1744
 30
0
 70
     0
  0
VERTEX
  8
LAYER1
 10
12.5719
 20
6.1864
 30
0
 70
     0
  0
VERTEX
  8
LAYER1
 10
12.5599
 20
6.2041
 30
0
 70
     0
  0
VERTEX
  8
LAYER1
 10
12.5556
 20
6.2256
 30
0
 70
     0
  0
VERTEX
  8
LAYER1
 10
12.5556
 20
6.2256
 30
0
 70
     0
  0
VERTEX
  8
LAYER1
 10
12.5599
 20
6.2471
 30
0
 70
     0
  0
VERTEX
  8
LAYER1
 10
12.5719
 20
6.2648
 30
0
 70
     0
  0
VERTEX
  8
LAYER1
 10
12.5896
 20
6.2767
 30
0
 70
     0
  0
VERTEX
  8
LAYER1
 10
12.6111
 20
6.2811
 30
0
 70
     0
  0
SEQEND
  0
LINE
  8
LAYER1
  6
CONTINUOUS
 62
     7
 10
12.6111
 20
6.5867
 30
0
 11
12.8611
 21
6.5867
 31
0
  0
LINE
  8
LAYER1
  6
CONTINUOUS
 62
     7
 10
12.6111
 20
6.1839
 30
0
 11
12.8611
 21
6.1839
 31
0
  0
CIRCLE
  8
LAYER1
 10
12.6875
 20
6.177
 30
0
 40
0.0208
  0
CIRCLE
  8
LAYER1
 10
12.6875
 20
6.177
 30
0
 40
0.0208
  0
CIRCLE
  8
LAYER1
 10
12.6875
 20
6.5798
 30
0
 40
0.0208
  0
CIRCLE
  8
LAYER1
 10
12.6875
 20
6.5798
 30
0
 40
0.0208
  0
ENDBLK
  8
LAYER1
  0
BLOCK
  8
LAYER1
  2
Group72
 70
     0
 10
0
 20
0
 30
0
  0
INSERT
  8
LAYER1
  2
Group71
 10
0
 20
0
 30
0
  0
ENDBLK
  8
LAYER1
  0
BLOCK
  8
LAYER1
  2
Group73
 70
     0
 10
0
 20
0
 30
0
  0
POLYLINE
  8
LAYER1
  6
CONTINUOUS
 62
     7
 66
     1
 70
     0
 40
0.0039
 41
0.0039
  0
VERTEX
  8
LAYER1
 10
12.6111
 20
5.1284
 30
0
 70
     0
  0
VERTEX
  8
LAYER1
 10
12.5896
 20
5.1328
 30
0
 70
     0
  0
VERTEX
  8
LAYER1
 10
12.5719
 20
5.1447
 30
0
 70
     0
  0
VERTEX
  8
LAYER1
 10
12.5599
 20
5.1624
 30
0
 70
     0
  0
VERTEX
  8
LAYER1
 10
12.5556
 20
5.1839
 30
0
 70
     0
  0
VERTEX
  8
LAYER1
 10
12.5556
 20
5.1839
 30
0
 70
     0
  0
VERTEX
  8
LAYER1
 10
12.5599
 20
5.2055
 30
0
 70
     0
  0
VERTEX
  8
LAYER1
 10
12.5719
 20
5.2231
 30
0
 70
     0
  0
VERTEX
  8
LAYER1
 10
12.5896
 20
5.2351
 30
0
 70
     0
  0
VERTEX
  8
LAYER1
 10
12.6111
 20
5.2395
 30
0
 70
     0
  0
SEQEND
  0
POLYLINE
  8
LAYER1
  6
CONTINUOUS
 62
     7
 66
     1
 70
     0
 40
0.0039
 41
0.0039
  0
VERTEX
  8
LAYER1
 10
12.6111
 20
5.0311
 30
0
 70
     0
  0
VERTEX
  8
LAYER1
 10
12.5896
 20
5.0355
 30
0
 70
     0
  0
VERTEX
  8
LAYER1
 10
12.5719
 20
5.0475
 30
0
 70
     0
  0
VERTEX
  8
LAYER1
 10
12.5599
 20
5.0652
 30
0
 70
     0
  0
VERTEX
  8
LAYER1
 10
12.5556
 20
5.0867
 30
0
 70
     0
  0
VERTEX
  8
LAYER1
 10
12.5556
 20
5.0867
 30
0
 70
     0
  0
VERTEX
  8
LAYER1
 10
12.5599
 20
5.1082
 30
0
 70
     0
  0
VERTEX
  8
LAYER1
 10
12.5719
 20
5.1259
 30
0
 70
     0
  0
VERTEX
  8
LAYER1
 10
12.5896
 20
5.1379
 30
0
 70
     0
  0
VERTEX
  8
LAYER1
 10
12.6111
 20
5.1423
 30
0
 70
     0
  0
SEQEND
  0
POLYLINE
  8
LAYER1
  6
CONTINUOUS
 62
     7
 66
     1
 70
     0
 40
0.0039
 41
0.0039
  0
VERTEX
  8
LAYER1
 10
12.6111
 20
4.9339
 30
0
 70
     0
  0
VERTEX
  8
LAYER1
 10
12.5896
 20
4.9383
 30
0
 70
     0
  0
VERTEX
  8
LAYER1
 10
12.5719
 20
4.9503
 30
0
 70
     0
  0
VERTEX
  8
LAYER1
 10
12.5599
 20
4.9679
 30
0
 70
     0
  0
VERTEX
  8
LAYER1
 10
12.5556
 20
4.9895
 30
0
 70
     0
  0
VERTEX
  8
LAYER1
 10
12.5556
 20
4.9895
 30
0
 70
     0
  0
VERTEX
  8
LAYER1
 10
12.5599
 20
5.011
 30
0
 70
     0
  0
VERTEX
  8
LAYER1
 10
12.5719
 20
5.0287
 30
0
 70
     0
  0
VERTEX
  8
LAYER1
 10
12.5896
 20
5.0406
 30
0
 70
     0
  0
VERTEX
  8
LAYER1
 10
12.6111
 20
5.045
 30
0
 70
     0
  0
SEQEND
  0
POLYLINE
  8
LAYER1
  6
CONTINUOUS
 62
     7
 66
     1
 70
     0
 40
0.0039
 41
0.0039
  0
VERTEX
  8
LAYER1
 10
12.6111
 20
4.8228
 30
0
 70
     0
  0
VERTEX
  8
LAYER1
 10
12.5896
 20
4.8272
 30
0
 70
     0
  0
VERTEX
  8
LAYER1
 10
12.5719
 20
4.8392
 30
0
 70
     0
  0
VERTEX
  8
LAYER1
 10
12.5599
 20
4.8568
 30
0
 70
     0
  0
VERTEX
  8
LAYER1
 10
12.5556
 20
4.8784
 30
0
 70
     0
  0
VERTEX
  8
LAYER1
 10
12.5556
 20
4.8784
 30
0
 70
     0
  0
VERTEX
  8
LAYER1
 10
12.5599
 20
4.8999
 30
0
 70
     0
  0
VERTEX
  8
LAYER1
 10
12.5719
 20
4.9176
 30
0
 70
     0
  0
VERTEX
  8
LAYER1
 10
12.5896
 20
4.9295
 30
0
 70
     0
  0
VERTEX
  8
LAYER1
 10
12.6111
 20
4.9339
 30
0
 70
     0
  0
SEQEND
  0
LINE
  8
LAYER1
  6
CONTINUOUS
 62
     7
 10
12.6111
 20
5.2395
 30
0
 11
12.8611
 21
5.2395
 31
0
  0
LINE
  8
LAYER1
  6
CONTINUOUS
 62
     7
 10
12.6111
 20
4.8367
 30
0
 11
12.8611
 21
4.8367
 31
0
  0
ENDBLK
  8
LAYER1
  0
BLOCK
  8
LAYER1
  2
Group74
 70
     0
 10
0
 20
0
 30
0
  0
LINE
  8
LAYER1
  6
CONTINUOUS
 62
     7
 10
12.6111
 20
5.045
 30
0
 11
12.8611
 21
5.045
 31
0
  0
LINE
  8
LAYER1
  6
CONTINUOUS
 62
     7
 10
12.5
 20
3.795
 30
0
 11
12.5
 21
3.4061
 31
0
  0
LINE
  8
LAYER1
  6
CONTINUOUS
 62
     7
 10
12.4444
 20
3.795
 30
0
 11
12.4444
 21
3.4061
 31
0
  0
POLYLINE
  8
LAYER1
  6
CONTINUOUS
 62
     7
 66
     1
 70
     0
 40
0.0039
 41
0.0039
  0
VERTEX
  8
LAYER1
 10
12.625
 20
3.6839
 30
0
 70
     0
  0
VERTEX
  8
LAYER1
 10
12.6035
 20
3.6883
 30
0
 70
     0
  0
VERTEX
  8
LAYER1
 10
12.5858
 20
3.7003
 30
0
 70
     0
  0
VERTEX
  8
LAYER1
 10
12.5738
 20
3.7179
 30
0
 70
     0
  0
VERTEX
  8
LAYER1
 10
12.5694
 20
3.7395
 30
0
 70
     0
  0
VERTEX
  8
LAYER1
 10
12.5694
 20
3.7395
 30
0
 70
     0
  0
VERTEX
  8
LAYER1
 10
12.5738
 20
3.761
 30
0
 70
     0
  0
VERTEX
  8
LAYER1
 10
12.5858
 20
3.7787
 30
0
 70
     0
  0
VERTEX
  8
LAYER1
 10
12.6035
 20
3.7906
 30
0
 70
     0
  0
VERTEX
  8
LAYER1
 10
12.625
 20
3.795
 30
0
 70
     0
  0
SEQEND
  0
POLYLINE
  8
LAYER1
  6
CONTINUOUS
 62
     7
 66
     1
 70
     0
 40
0.0039
 41
0.0039
  0
VERTEX
  8
LAYER1
 10
12.625
 20
3.5867
 30
0
 70
     0
  0
VERTEX
  8
LAYER1
 10
12.6035
 20
3.5911
 30
0
 70
     0
  0
VERTEX
  8
LAYER1
 10
12.5858
 20
3.6031
 30
0
 70
     0
  0
VERTEX
  8
LAYER1
 10
12.5738
 20
3.6207
 30
0
 70
     0
  0
VERTEX
  8
LAYER1
 10
12.5694
 20
3.6423
 30
0
 70
     0
  0
VERTEX
  8
LAYER1
 10
12.5694
 20
3.6423
 30
0
 70
     0
  0
VERTEX
  8
LAYER1
 10
12.5738
 20
3.6638
 30
0
 70
     0
  0
VERTEX
  8
LAYER1
 10
12.5858
 20
3.6815
 30
0
 70
     0
  0
VERTEX
  8
LAYER1
 10
12.6035
 20
3.6934
 30
0
 70
     0
  0
VERTEX
  8
LAYER1
 10
12.625
 20
3.6978
 30
0
 70
     0
  0
SEQEND
  0
POLYLINE
  8
LAYER1
  6
CONTINUOUS
 62
     7
 66
     1
 70
     0
 40
0.0039
 41
0.0039
  0
VERTEX
  8
LAYER1
 10
12.625
 20
3.4895
 30
0
 70
     0
  0
VERTEX
  8
LAYER1
 10
12.6035
 20
3.4939
 30
0
 70
     0
  0
VERTEX
  8
LAYER1
 10
12.5858
 20
3.5058
 30
0
 70
     0
  0
VERTEX
  8
LAYER1
 10
12.5738
 20
3.5235
 30
0
 70
     0
  0
VERTEX
  8
LAYER1
 10
12.5694
 20
3.545
 30
0
 70
     0
  0
VERTEX
  8
LAYER1
 10
12.5694
 20
3.545
 30
0
 70
     0
  0
VERTEX
  8
LAYER1
 10
12.5738
 20
3.5666
 30
0
 70
     0
  0
VERTEX
  8
LAYER1
 10
12.5858
 20
3.5842
 30
0
 70
     0
  0
VERTEX
  8
LAYER1
 10
12.6035
 20
3.5962
 30
0
 70
     0
  0
VERTEX
  8
LAYER1
 10
12.625
 20
3.6006
 30
0
 70
     0
  0
SEQEND
  0
POLYLINE
  8
LAYER1
  6
CONTINUOUS
 62
     7
 66
     1
 70
     0
 40
0.0039
 41
0.0039
  0
VERTEX
  8
LAYER1
 10
12.625
 20
3.3923
 30
0
 70
     0
  0
VERTEX
  8
LAYER1
 10
12.6035
 20
3.3966
 30
0
 70
     0
  0
VERTEX
  8
LAYER1
 10
12.5858
 20
3.4086
 30
0
 70
     0
  0
VERTEX
  8
LAYER1
 10
12.5738
 20
3.4263
 30
0
 70
     0
  0
VERTEX
  8
LAYER1
 10
12.5694
 20
3.4478
 30
0
 70
     0
  0
VERTEX
  8
LAYER1
 10
12.5694
 20
3.4478
 30
0
 70
     0
  0
VERTEX
  8
LAYER1
 10
12.5738
 20
3.4693
 30
0
 70
     0
  0
VERTEX
  8
LAYER1
 10
12.5858
 20
3.487
 30
0
 70
     0
  0
VERTEX
  8
LAYER1
 10
12.6035
 20
3.499
 30
0
 70
     0
  0
VERTEX
  8
LAYER1
 10
12.625
 20
3.5034
 30
0
 70
     0
  0
SEQEND
  0
LINE
  8
LAYER1
  6
CONTINUOUS
 62
     7
 10
12.625
 20
3.795
 30
0
 11
12.875
 21
3.795
 31
0
  0
ENDBLK
  8
LAYER1
  0
BLOCK
  8
LAYER1
  2
Group75
 70
     0
 10
0
 20
0
 30
0
  0
TEXT
  8
LAYER1
 62
     7
 10
2.5872
 20
0.051
 30
0
 40
0.1389
  1
- 4-318 -
 50
0
999
Geneva
  0
TEXT
  8
LAYER1
 62
     7
 10
10.9622
 20
0.051
 30
0
 40
0.1389
  1
- 4-319 -
 50
0
999
Geneva
  0
INSERT
  8
LAYER1
  2
Group1
 10
0
 20
0
 30
0
  0
INSERT
  8
LAYER1
  2
Group2
 10
0
 20
0
 30
0
  0
INSERT
  8
LAYER1
  2
Group3
 10
0
 20
0
 30
0
  0
INSERT
  8
LAYER1
  2
Group4
 10
0
 20
0
 30
0
  0
TEXT
  8
LAYER1
 62
     7
 10
0.6428
 20
9.2454
 30
0
 40
0.0833
  1
Trans.PNP
 50
0
999
Geneva
  0
TEXT
  8
LAYER1
 62
     7
 10
0.4344
 20
9.0926
 30
0
 40
0.0833
  1
Transistor - PNP
 50
0
999
Geneva
  0
INSERT
  8
LAYER1
  2
Group7
 10
0
 20
0
 30
0
  0
TEXT
  8
LAYER1
 62
     7
 10
0.7539
 20
8.9398
 30
0
 40
0.0833
  1
63400
 50
0
999
Geneva
  0
TEXT
  8
LAYER1
 62
     7
 10
0.5178
 20
7.8704
 30
0
 40
0.0833
  1
Trans.FET Nch
 50
0
999
Geneva
  0
TEXT
  8
LAYER1
 62
     7
 10
0.1983
 20
7.6898
 30
0
 40
0.0833
  1
Junction FET - N Channel
 50
0
999
Geneva
  0
INSERT
  8
LAYER1
  2
Group10
 10
0
 20
0
 30
0
  0
TEXT
  8
LAYER1
 62
     7
 10
0.7539
 20
7.551
 30
0
 40
0.0833
  1
63401
 50
0
999
Geneva
  0
TEXT
  8
LAYER1
 62
     7
 10
0.5039
 20
6.3704
 30
0
 40
0.0833
  1
Trans.UJT Nch
 50
0
999
Geneva
  0
TEXT
  8
LAYER1
 62
     7
 10
0.4622
 20
6.2176
 30
0
 40
0.0833
  1
UJT N - Channel
 50
0
999
Geneva
  0
INSERT
  8
LAYER1
  2
Group13
 10
0
 20
0
 30
0
  0
TEXT
  8
LAYER1
 62
     7
 10
0.7539
 20
6.0648
 30
0
 40
0.0833
  1
63402
 50
0
999
Geneva
  0
TEXT
  8
LAYER1
 62
     7
 10
0.3789
 20
4.8704
 30
0
 40
0.0833
  1
Trans.MOSFET Nch
 50
0
999
Geneva
  0
TEXT
  8
LAYER1
 62
     7
 10
0.3372
 20
4.7176
 30
0
 40
0.0833
  1
MOSFET N - Channel
 50
0
999
Geneva
  0
INSERT
  8
LAYER1
  2
Group15
 10
0
 20
0
 30
0
  0
TEXT
  8
LAYER1
 62
     7
 10
0.7539
 20
4.5787
 30
0
 40
0.0833
  1
63403
 50
0
999
Geneva
  0
TEXT
  8
LAYER1
 62
     7
 10
0.2955
 20
3.4121
 30
0
 40
0.0833
  1
Trans.MOSFET N Dual
 50
0
999
Geneva
  0
TEXT
  8
LAYER1
 62
     7
 10
0.1566
 20
3.2454
 30
0
 40
0.0833
  1
Dual-Gate MOSFET N - Chl
 50
0
999
Geneva
  0
INSERT
  8
LAYER1
  2
Group18
 10
0
 20
0
 30
0
  0
TEXT
  8
LAYER1
 62
     7
 10
0.7539
 20
3.0787
 30
0
 40
0.0833
  1
63404
 50
0
999
Geneva
  0
TEXT
  8
LAYER1
 62
     7
 10
0.6011
 20
1.801
 30
0
 40
0.0833
  1
Tube.Triode
 50
0
999
Geneva
  0
TEXT
  8
LAYER1
 62
     7
 10
0.2678
 20
1.6621
 30
0
 40
0.0833
  1
Electron Tube - Triode
 50
0
999
Geneva
  0
INSERT
  8
LAYER1
  2
Group21
 10
0
 20
0
 30
0
  0
TEXT
  8
LAYER1
 62
     7
 10
0.7539
 20
1.4954
 30
0
 40
0.0833
  1
63405
 50
0
999
Geneva
  0
TEXT
  8
LAYER1
 62
     7
 10
2.7539
 20
9.2454
 30
0
 40
0.0833
  1
Trans.NPN
 50
0
999
Geneva
  0
TEXT
  8
LAYER1
 62
     7
 10
2.5316
 20
9.1065
 30
0
 40
0.0833
  1
Transistor - NPN
 50
0
999
Geneva
  0
INSERT
  8
LAYER1
  2
Group24
 10
0
 20
0
 30
0
  0
TEXT
  8
LAYER1
 62
     7
 10
2.865
 20
8.9398
 30
0
 40
0.0833
  1
63406
 50
0
999
Geneva
  0
TEXT
  8
LAYER1
 62
     7
 10
2.6289
 20
7.8843
 30
0
 40
0.0833
  1
Trans.FET Pch
 50
0
999
Geneva
  0
TEXT
  8
LAYER1
 62
     7
 10
2.2955
 20
7.7315
 30
0
 40
0.0833
  1
Junction FET - P Channel
 50
0
999
Geneva
  0
INSERT
  8
LAYER1
  2
Group27
 10
0
 20
0
 30
0
  0
TEXT
  8
LAYER1
 62
     7
 10
2.865
 20
7.5787
 30
0
 40
0.0833
  1
63407
 50
0
999
Geneva
  0
TEXT
  8
LAYER1
 62
     7
 10
2.615
 20
6.3982
 30
0
 40
0.0833
  1
Trans.UJT Pch
 50
0
999
Geneva
  0
TEXT
  8
LAYER1
 62
     7
 10
2.5733
 20
6.2454
 30
0
 40
0.0833
  1
UJT P - Channel
 50
0
999
Geneva
  0
INSERT
  8
LAYER1
  2
Group30
 10
0
 20
0
 30
0
  0
TEXT
  8
LAYER1
 62
     7
 10
2.865
 20
6.0926
 30
0
 40
0.0833
  1
63408
 50
0
999
Geneva
  0
TEXT
  8
LAYER1
 62
     7
 10
2.49
 20
4.8982
 30
0
 40
0.0833
  1
Trans.MOSFET Pch
 50
0
999
Geneva
  0
TEXT
  8
LAYER1
 62
     7
 10
2.4483
 20
4.7454
 30
0
 40
0.0833
  1
MOSFET P - Channel
 50
0
999
Geneva
  0
INSERT
  8
LAYER1
  2
Group33
 10
0
 20
0
 30
0
  0
TEXT
  8
LAYER1
 62
     7
 10
2.865
 20
4.6065
 30
0
 40
0.0833
  1
63409
 50
0
999
Geneva
  0
TEXT
  8
LAYER1
 62
     7
 10
2.4066
 20
3.426
 30
0
 40
0.0833
  1
Trans.MOSFET P Dual
 50
0
999
Geneva
  0
TEXT
  8
LAYER1
 62
     7
 10
2.2678
 20
3.2732
 30
0
 40
0.0833
  1
Dual-Gate MOSFET P - Chl
 50
0
999
Geneva
  0
INSERT
  8
LAYER1
  2
Group36
 10
0
 20
0
 30
0
  0
TEXT
  8
LAYER1
 62
     7
 10
2.865
 20
3.1204
 30
0
 40
0.0833
  1
63410
 50
0
999
Geneva
  0
TEXT
  8
LAYER1
 62
     7
 10
2.6705
 20
1.8565
 30
0
 40
0.0833
  1
Tube.Pentode
 50
0
999
Geneva
  0
TEXT
  8
LAYER1
 62
     7
 10
2.3372
 20
1.7037
 30
0
 40
0.0833
  1
Electron Tube - Pentode
 50
0
999
Geneva
  0
INSERT
  8
LAYER1
  2
Group42
 10
0
 20
0
 30
0
  0
TEXT
  8
LAYER1
 62
     7
 10
2.865
 20
1.551
 30
0
 40
0.0833
  1
63411
 50
0
999
Geneva
  0
INSERT
  8
LAYER1
  2
Group43
 10
0
 20
0
 30
0
  0
TEXT
  8
LAYER1
 62
     7
 10
4.5039
 20
9.2871
 30
0
 40
0.0833
  1
Voltage.Regulator
 50
0
999
Geneva
  0
TEXT
  8
LAYER1
 62
     7
 10
4.5039
 20
9.1343
 30
0
 40
0.0833
  1
Voltage Regulator
 50
0
999
Geneva
  0
TEXT
  8
LAYER1
 62
     7
 10
4.8511
 20
8.9815
 30
0
 40
0.0833
  1
63412
 50
0
999
Geneva
  0
CIRCLE
  8
LAYER1
 10
5.0694
 20
8.4478
 30
0
 40
0.3194
  0
TEXT
  8
LAYER1
 62
     7
 10
4.615
 20
7.9398
 30
0
 40
0.0833
  1
Tube.Envelope
 50
0
999
Geneva
  0
TEXT
  8
LAYER1
 62
     7
 10
4.2816
 20
7.7871
 30
0
 40
0.0833
  1
Electron Tube - Envelope
 50
0
999
Geneva
  0
TEXT
  8
LAYER1
 62
     7
 10
4.8511
 20
7.6343
 30
0
 40
0.0833
  1
63413
 50
0
999
Geneva
  0
TEXT
  8
LAYER1
 62
     7
 10
4.7261
 20
6.6065
 30
0
 40
0.0833
  1
Tube.Plate
 50
0
999
Geneva
  0
TEXT
  8
LAYER1
 62
     7
 10
4.365
 20
6.4676
 30
0
 40
0.0833
  1
Electron Tube -  Plate
 50
0
999
Geneva
  0
INSERT
  8
LAYER1
  2
Group44
 10
0
 20
0
 30
0
  0
TEXT
  8
LAYER1
 62
     7
 10
4.8511
 20
6.3148
 30
0
 40
0.0833
  1
63414
 50
0
999
Geneva
  0
TEXT
  8
LAYER1
 62
     7
 10
4.49
 20
5.2454
 30
0
 40
0.0833
  1
Tube.Cathode.Indr
 50
0
999
Geneva
  0
TEXT
  8
LAYER1
 62
     7
 10
4.3094
 20
5.1204
 30
0
 40
0.0833
  1
Electron Tube - Cathode
 50
0
999
Geneva
  0
TEXT
  8
LAYER1
 62
     7
 10
5.7598
 20
5.1204
 30
0
 40
0.0833
  1
 
 50
0
999
Geneva
  0
TEXT
  8
LAYER1
 62
     7
 10
4.4622
 20
4.9537
 30
0
 40
0.0833
  1
(Indirectly Heated)
 50
0
999
Geneva
  0
INSERT
  8
LAYER1
  2
Group46
 10
0
 20
0
 30
0
  0
TEXT
  8
LAYER1
 62
     7
 10
4.8511
 20
4.7871
 30
0
 40
0.0833
  1
63415
 50
0
999
Geneva
  0
LINE
  8
LAYER1
  6
DASH1
 62
     7
 10
4.875
 20
4.2117
 30
0
 11
5.25
 21
4.2117
 31
0
  0
INSERT
  8
LAYER1
  2
Group47
 10
0
 20
0
 30
0
  0
TEXT
  8
LAYER1
 62
     7
 10
4.7539
 20
3.926
 30
0
 40
0.0833
  1
Tube.Grid
 50
0
999
Geneva
  0
TEXT
  8
LAYER1
 62
     7
 10
4.4205
 20
3.7593
 30
0
 40
0.0833
  1
Electron Tube - Grid
 50
0
999
Geneva
  0
TEXT
  8
LAYER1
 62
     7
 10
4.8511
 20
3.6065
 30
0
 40
0.0833
  1
63416
 50
0
999
Geneva
  0
TEXT
  8
LAYER1
 62
     7
 10
4.6011
 20
2.6204
 30
0
 40
0.0833
  1
Tube.Heater A
 50
0
999
Geneva
  0
TEXT
  8
LAYER1
 62
     7
 10
4.2678
 20
2.4676
 30
0
 40
0.0833
  1
Electron Tube - Heater A
 50
0
999
Geneva
  0
INSERT
  8
LAYER1
  2
Group49
 10
0
 20
0
 30
0
  0
TEXT
  8
LAYER1
 62
     7
 10
4.8511
 20
2.2871
 30
0
 40
0.0833
  1
63417
 50
0
999
Geneva
  0
TEXT
  8
LAYER1
 62
     7
 10
4.615
 20
1.4398
 30
0
 40
0.0833
  1
Tube.Heater B
 50
0
999
Geneva
  0
TEXT
  8
LAYER1
 62
     7
 10
4.2816
 20
1.2871
 30
0
 40
0.0833
  1
Electron Tube - Heater B
 50
0
999
Geneva
  0
INSERT
  8
LAYER1
  2
Group51
 10
0
 20
0
 30
0
  0
TEXT
  8
LAYER1
 62
     7
 10
4.8511
 20
1.0926
 30
0
 40
0.0833
  1
63418
 50
0
999
Geneva
  0
INSERT
  8
LAYER1
  2
Group52
 10
0
 20
0
 30
0
  0
TEXT
  8
LAYER1
 62
     7
 10
2.5733
 20
0.8287
 30
0
 40
0.0833
  1
Tube.Defl.Plates
 50
0
999
Geneva
  0
TEXT
  8
LAYER1
 62
     7
 10
2.1983
 20
0.6621
 30
0
 40
0.0833
  1
Elect.Tube-Deflection Plates
 50
0
999
Geneva
  0
TEXT
  8
LAYER1
 62
     7
 10
2.865
 20
0.4815
 30
0
 40
0.0833
  1
63419
 50
0
999
Geneva
  0
TEXT
  8
LAYER1
 62
     7
 10
0.4066
 20
0.6898
 30
0
 40
0.0833
  1
Tube.Cathode.Cold
 50
0
999
Geneva
  0
TEXT
  8
LAYER1
 62
     7
 10
0.0733
 20
0.5371
 30
0
 40
0.0833
  1
Electron Tube - Cold Cathode
 50
0
999
Geneva
  0
INSERT
  8
LAYER1
  2
Group53
 10
0
 20
0
 30
0
  0
TEXT
  8
LAYER1
 62
     7
 10
0.7539
 20
0.3704
 30
0
 40
0.0833
  1
63420
 50
0
999
Geneva
  0
TEXT
  8
LAYER1
 62
     7
 10
9.9205
 20
8.8565
 30
0
 40
0.0833
  1
Trans.Air Core
 50
0
999
Geneva
  0
TEXT
  8
LAYER1
 62
     7
 10
9.6428
 20
8.7176
 30
0
 40
0.0833
  1
Transformer - Air Core
 50
0
999
Geneva
  0
INSERT
  8
LAYER1
  2
Group54
 10
0
 20
0
 30
0
  0
TEXT
  8
LAYER1
 62
     7
 10
10.1844
 20
8.5648
 30
0
 40
0.0833
  1
63700
 50
0
999
Geneva
  0
TEXT
  8
LAYER1
 62
     7
 10
9.8094
 20
7.3843
 30
0
 40
0.0833
  1
Trans.Adj Coupling
 50
0
999
Geneva
  0
TEXT
  8
LAYER1
 62
     7
 10
9.7816
 20
7.2315
 30
0
 40
0.0833
  1
Adjustable Coupling
 50
0
999
Geneva
  0
INSERT
  8
LAYER1
  2
Group56
 10
0
 20
0
 30
0
  0
TEXT
  8
LAYER1
 62
     7
 10
10.1844
 20
7.0787
 30
0
 40
0.0833
  1
63701
 50
0
999
Geneva
  0
TEXT
  8
LAYER1
 62
     7
 10
9.8789
 20
5.8426
 30
0
 40
0.0833
  1
Trans.Adj Induct
 50
0
999
Geneva
  0
TEXT
  8
LAYER1
 62
     7
 10
9.7122
 20
5.7037
 30
0
 40
0.0833
  1
Adjustable Inductance
 50
0
999
Geneva
  0
INSERT
  8
LAYER1
  2
Group59
 10
0
 20
0
 30
0
  0
TEXT
  8
LAYER1
 62
     7
 10
10.1844
 20
5.551
 30
0
 40
0.0833
  1
63702
 50
0
999
Geneva
  0
TEXT
  8
LAYER1
 62
     7
 10
9.9761
 20
4.3287
 30
0
 40
0.0833
  1
Trans.w/Link
 50
0
999
Geneva
  0
TEXT
  8
LAYER1
 62
     7
 10
9.6844
 20
4.176
 30
0
 40
0.0833
  1
Transformer with Link
 50
0
999
Geneva
  0
INSERT
  8
LAYER1
  2
Group60
 10
0
 20
0
 30
0
  0
TEXT
  8
LAYER1
 62
     7
 10
10.1844
 20
4.0232
 30
0
 40
0.0833
  1
63703
 50
0
999
Geneva
  0
TEXT
  8
LAYER1
 62
     7
 10
9.9066
 20
3.0926
 30
0
 40
0.0833
  1
Trans.Iron Core
 50
0
999
Geneva
  0
TEXT
  8
LAYER1
 62
     7
 10
9.615
 20
2.9537
 30
0
 40
0.0833
  1
Transformer - Iron Core
 50
0
999
Geneva
  0
INSERT
  8
LAYER1
  2
Group61
 10
0
 20
0
 30
0
  0
TEXT
  8
LAYER1
 62
     7
 10
10.1844
 20
2.7732
 30
0
 40
0.0833
  1
63704
 50
0
999
Geneva
  0
TEXT
  8
LAYER1
 62
     7
 10
9.865
 20
1.4398
 30
0
 40
0.0833
  1
Trans.Iron Shield
 50
0
999
Geneva
  0
TEXT
  8
LAYER1
 62
     7
 10
9.7122
 20
1.2732
 30
0
 40
0.0833
  1
Shielded w/ Iron Core
 50
0
999
Geneva
  0
INSERT
  8
LAYER1
  2
Group66
 10
0
 20
0
 30
0
  0
TEXT
  8
LAYER1
 62
     7
 10
10.1844
 20
1.1065
 30
0
 40
0.0833
  1
63705
 50
0
999
Geneva
  0
TEXT
  8
LAYER1
 62
     7
 10
12.1844
 20
8.8565
 30
0
 40
0.0833
  1
Induct.Air Core
 50
0
999
Geneva
  0
TEXT
  8
LAYER1
 62
     7
 10
12.0455
 20
8.7037
 30
0
 40
0.0833
  1
Inductor - Air Core
 50
0
999
Geneva
  0
INSERT
  8
LAYER1
  2
Group67
 10
0
 20
0
 30
0
  0
TEXT
  8
LAYER1
 62
     7
 10
12.4483
 20
8.551
 30
0
 40
0.0833
  1
63706
 50
0
999
Geneva
  0
TEXT
  8
LAYER1
 62
     7
 10
12.115
 20
7.3843
 30
0
 40
0.0833
  1
Induct.Adjustable
 50
0
999
Geneva
  0
TEXT
  8
LAYER1
 62
     7
 10
11.99
 20
7.2315
 30
0
 40
0.0833
  1
Inductor - Adjustable
 50
0
999
Geneva
  0
INSERT
  8
LAYER1
  2
Group70
 10
0
 20
0
 30
0
  0
TEXT
  8
LAYER1
 62
     7
 10
12.4483
 20
7.0926
 30
0
 40
0.0833
  1
63707
 50
0
999
Geneva
  0
TEXT
  8
LAYER1
 62
     7
 10
12.24
 20
5.8565
 30
0
 40
0.0833
  1
Induct.Plug In
 50
0
999
Geneva
  0
TEXT
  8
LAYER1
 62
     7
 10
12.115
 20
5.7037
 30
0
 40
0.0833
  1
Inductor - Plug In
 50
0
999
Geneva
  0
INSERT
  8
LAYER1
  2
Group72
 10
0
 20
0
 30
0
  0
TEXT
  8
LAYER1
 62
     7
 10
12.4483
 20
5.551
 30
0
 40
0.0833
  1
63708
 50
0
999
Geneva
  0
TEXT
  8
LAYER1
 62
     7
 10
12.24
 20
4.4398
 30
0
 40
0.0833
  1
Induct.Tapped
 50
0
999
Geneva
  0
TEXT
  8
LAYER1
 62
     7
 10
12.0178
 20
4.2732
 30
0
 40
0.0833
  1
Inductor - With Taps
 50
0
999
Geneva
  0
INSERT
  8
LAYER1
  2
Group73
 10
0
 20
0
 30
0
  0
TEXT
  8
LAYER1
 62
     7
 10
12.4483
 20
4.1204
 30
0
 40
0.0833
  1
63709
 50
0
999
Geneva
  0
TEXT
  8
LAYER1
 62
     7
 10
12.1566
 20
3.1065
 30
0
 40
0.0833
  1
Induct.Iron Core
 50
0
999
Geneva
  0
TEXT
  8
LAYER1
 62
     7
 10
12.0316
 20
2.9676
 30
0
 40
0.0833
  1
Inductor - Iron Core
 50
0
999
Geneva
  0
INSERT
  8
LAYER1
  2
Group74
 10
0
 20
0
 30
0
  0
TEXT
  8
LAYER1
 62
     7
 10
12.4483
 20
2.7871
 30
0
 40
0.0833
  1
63710
 50
0
999
Geneva
  0
ENDBLK
  8
LAYER1
  0
ENDSEC
  0
SECTION
  2
ENTITIES
  0
INSERT
  8
LAYER1
  2
Group75
 10
0
 20
0
 30
0
  0
ENDSEC
  0
EOF
